  0
SECTION
  2
HEADER
  9
$ACADVER
  1
AC1015
  9
$ACADMAINTVER
 70
     6
  9
$DWGCODEPAGE
  3
ANSI_1252
  9
$INSBASE
 10
0.0
 20
0.0
 30
0.0
  9
$EXTMIN
 10
-73.92757227579472
 20
-67.09837829687575
 30
0.0
  9
$EXTMAX
 10
223.0724277242052
 20
142.9016217031242
 30
0.0
  9
$LIMMIN
 10
0.0
 20
0.0
  9
$LIMMAX
 10
12.0
 20
9.0
  9
$ORTHOMODE
 70
     1
  9
$REGENMODE
 70
     1
  9
$FILLMODE
 70
     1
  9
$QTEXTMODE
 70
     0
  9
$MIRRTEXT
 70
     0
  9
$LTSCALE
 40
1.0
  9
$ATTMODE
 70
     1
  9
$TEXTSIZE
 40
0.2
  9
$TRACEWID
 40
0.05
  9
$TEXTSTYLE
  7
Standard
  9
$CLAYER
  8
0
  9
$CELTYPE
  6
ByLayer
  9
$CECOLOR
 62
   256
  9
$CELTSCALE
 40
1.0
  9
$DISPSILH
 70
     0
  9
$DIMSCALE
 40
1.0
  9
$DIMASZ
 40
0.18
  9
$DIMEXO
 40
0.0625
  9
$DIMDLI
 40
0.38
  9
$DIMRND
 40
0.0
  9
$DIMDLE
 40
0.0
  9
$DIMEXE
 40
0.18
  9
$DIMTP
 40
0.0
  9
$DIMTM
 40
0.0
  9
$DIMTXT
 40
0.18
  9
$DIMCEN
 40
0.09
  9
$DIMTSZ
 40
0.0
  9
$DIMTOL
 70
     0
  9
$DIMLIM
 70
     0
  9
$DIMTIH
 70
     1
  9
$DIMTOH
 70
     1
  9
$DIMSE1
 70
     0
  9
$DIMSE2
 70
     0
  9
$DIMTAD
 70
     0
  9
$DIMZIN
 70
     0
  9
$DIMBLK
  1

  9
$DIMASO
 70
     1
  9
$DIMSHO
 70
     1
  9
$DIMPOST
  1

  9
$DIMAPOST
  1

  9
$DIMALT
 70
     0
  9
$DIMALTD
 70
     2
  9
$DIMALTF
 40
25.4
  9
$DIMLFAC
 40
1.0
  9
$DIMTOFL
 70
     0
  9
$DIMTVP
 40
0.0
  9
$DIMTIX
 70
     0
  9
$DIMSOXD
 70
     0
  9
$DIMSAH
 70
     0
  9
$DIMBLK1
  1

  9
$DIMBLK2
  1

  9
$DIMSTYLE
  2
Standard
  9
$DIMCLRD
 70
     0
  9
$DIMCLRE
 70
     0
  9
$DIMCLRT
 70
     0
  9
$DIMTFAC
 40
1.0
  9
$DIMGAP
 40
0.09
  9
$DIMJUST
 70
     0
  9
$DIMSD1
 70
     0
  9
$DIMSD2
 70
     0
  9
$DIMTOLJ
 70
     1
  9
$DIMTZIN
 70
     0
  9
$DIMALTZ
 70
     0
  9
$DIMALTTZ
 70
     0
  9
$DIMUPT
 70
     0
  9
$DIMDEC
 70
     4
  9
$DIMTDEC
 70
     4
  9
$DIMALTU
 70
     2
  9
$DIMALTTD
 70
     2
  9
$DIMTXSTY
  7
Standard
  9
$DIMAUNIT
 70
     0
  9
$DIMADEC
 70
     0
  9
$DIMALTRND
 40
0.0
  9
$DIMAZIN
 70
     0
  9
$DIMDSEP
 70
    46
  9
$DIMATFIT
 70
     3
  9
$DIMFRAC
 70
     0
  9
$DIMLDRBLK
  1

  9
$DIMLUNIT
 70
     2
  9
$DIMLWD
 70
    -2
  9
$DIMLWE
 70
    -2
  9
$DIMTMOVE
 70
     0
  9
$LUNITS
 70
     2
  9
$LUPREC
 70
     4
  9
$SKETCHINC
 40
0.1
  9
$FILLETRAD
 40
0.0
  9
$AUNITS
 70
     0
  9
$AUPREC
 70
     0
  9
$MENU
  1
.
  9
$ELEVATION
 40
0.0
  9
$PELEVATION
 40
0.0
  9
$THICKNESS
 40
0.0
  9
$LIMCHECK
 70
     0
  9
$CHAMFERA
 40
0.0
  9
$CHAMFERB
 40
0.0
  9
$CHAMFERC
 40
0.0
  9
$CHAMFERD
 40
0.0
  9
$SKPOLY
 70
     0
  9
$TDCREATE
 40
2453353.800459155
  9
$TDUCREATE
 40
2453353.717125822
  9
$TDUPDATE
 40
2455659.4896364
  9
$TDUUPDATE
 40
2455659.406303067
  9
$TDINDWG
 40
0.0672684722
  9
$TDUSRTIMER
 40
0.0672563194
  9
$USRTIMER
 70
     1
  9
$ANGBASE
 50
0.0
  9
$ANGDIR
 70
     0
  9
$PDMODE
 70
     0
  9
$PDSIZE
 40
0.0
  9
$PLINEWID
 40
0.0
  9
$SPLFRAME
 70
     0
  9
$SPLINETYPE
 70
     6
  9
$SPLINESEGS
 70
     8
  9
$HANDSEED
  5
2DA
  9
$SURFTAB1
 70
     6
  9
$SURFTAB2
 70
     6
  9
$SURFTYPE
 70
     6
  9
$SURFU
 70
     6
  9
$SURFV
 70
     6
  9
$UCSBASE
  2

  9
$UCSNAME
  2

  9
$UCSORG
 10
0.0
 20
0.0
 30
0.0
  9
$UCSXDIR
 10
1.0
 20
0.0
 30
0.0
  9
$UCSYDIR
 10
0.0
 20
1.0
 30
0.0
  9
$UCSORTHOREF
  2

  9
$UCSORTHOVIEW
 70
     0
  9
$UCSORGTOP
 10
0.0
 20
0.0
 30
0.0
  9
$UCSORGBOTTOM
 10
0.0
 20
0.0
 30
0.0
  9
$UCSORGLEFT
 10
0.0
 20
0.0
 30
0.0
  9
$UCSORGRIGHT
 10
0.0
 20
0.0
 30
0.0
  9
$UCSORGFRONT
 10
0.0
 20
0.0
 30
0.0
  9
$UCSORGBACK
 10
0.0
 20
0.0
 30
0.0
  9
$PUCSBASE
  2

  9
$PUCSNAME
  2

  9
$PUCSORG
 10
0.0
 20
0.0
 30
0.0
  9
$PUCSXDIR
 10
1.0
 20
0.0
 30
0.0
  9
$PUCSYDIR
 10
0.0
 20
1.0
 30
0.0
  9
$PUCSORTHOREF
  2

  9
$PUCSORTHOVIEW
 70
     0
  9
$PUCSORGTOP
 10
0.0
 20
0.0
 30
0.0
  9
$PUCSORGBOTTOM
 10
0.0
 20
0.0
 30
0.0
  9
$PUCSORGLEFT
 10
0.0
 20
0.0
 30
0.0
  9
$PUCSORGRIGHT
 10
0.0
 20
0.0
 30
0.0
  9
$PUCSORGFRONT
 10
0.0
 20
0.0
 30
0.0
  9
$PUCSORGBACK
 10
0.0
 20
0.0
 30
0.0
  9
$USERI1
 70
     0
  9
$USERI2
 70
     0
  9
$USERI3
 70
     0
  9
$USERI4
 70
     0
  9
$USERI5
 70
     0
  9
$USERR1
 40
0.0
  9
$USERR2
 40
0.0
  9
$USERR3
 40
0.0
  9
$USERR4
 40
0.0
  9
$USERR5
 40
0.0
  9
$WORLDVIEW
 70
     1
  9
$SHADEDGE
 70
     3
  9
$SHADEDIF
 70
    70
  9
$TILEMODE
 70
     1
  9
$MAXACTVP
 70
    64
  9
$PINSBASE
 10
0.0
 20
0.0
 30
0.0
  9
$PLIMCHECK
 70
     0
  9
$PEXTMIN
 10
0.0
 20
0.0
 30
0.0
  9
$PEXTMAX
 10
0.0
 20
0.0
 30
0.0
  9
$PLIMMIN
 10
0.0
 20
0.0
  9
$PLIMMAX
 10
12.0
 20
9.0
  9
$UNITMODE
 70
     0
  9
$VISRETAIN
 70
     1
  9
$PLINEGEN
 70
     0
  9
$PSLTSCALE
 70
     1
  9
$TREEDEPTH
 70
  3020
  9
$CMLSTYLE
  2
Standard
  9
$CMLJUST
 70
     0
  9
$CMLSCALE
 40
1.0
  9
$PROXYGRAPHICS
 70
     1
  9
$MEASUREMENT
 70
     0
  9
$CELWEIGHT
370
    -1
  9
$ENDCAPS
280
     0
  9
$JOINSTYLE
280
     0
  9
$LWDISPLAY
290
     0
  9
$INSUNITS
 70
     1
  9
$HYPERLINKBASE
  1

  9
$STYLESHEET
  1

  9
$XEDIT
290
     0
  9
$CEPSNTYPE
380
     0
  9
$PSTYLEMODE
290
     0
  9
$FINGERPRINTGUID
  2
{8BAE0D3F-6380-4E3D-B0D1-267E31F469C1}
  9
$VERSIONGUID
  2
{6F1AD05E-3764-4268-ADD0-261F181DCA83}
  9
$EXTNAMES
290
     1
  9
$PSVPSCALE
 40
0.0
  9
$OLESTARTUP
290
     0
  0
ENDSEC
  0
SECTION
  2
CLASSES
  0
CLASS
  1
ACDBDICTIONARYWDFLT
  2
AcDbDictionaryWithDefault
  3
ObjectDBX Classes
 90
        0
280
     0
281
     0
  0
CLASS
  1
ACDBPLACEHOLDER
  2
AcDbPlaceHolder
  3
ObjectDBX Classes
 90
        0
280
     0
281
     0
  0
CLASS
  1
LAYOUT
  2
AcDbLayout
  3
ObjectDBX Classes
 90
        0
280
     0
281
     0
  0
CLASS
  1
DICTIONARYVAR
  2
AcDbDictionaryVar
  3
ObjectDBX Classes
 90
        0
280
     0
281
     0
  0
CLASS
  1
TABLESTYLE
  2
AcDbTableStyle
  3
ObjectDBX Classes
 90
     4095
280
     0
281
     0
  0
CLASS
  1
SCALE
  2
AcDbScale
  3
ObjectDBX Classes
 90
     1153
280
     0
281
     0
  0
ENDSEC
  0
SECTION
  2
TABLES
  0
TABLE
  2
VPORT
  5
8
330
0
100
AcDbSymbolTable
 70
     2
  0
VPORT
  5
97
330
8
100
AcDbSymbolTableRecord
100
AcDbViewportTableRecord
  2
*Active
 70
     0
 10
0.0
 20
0.0
 11
1.0
 21
1.0
 12
48.24696990291019
 22
27.11142512922385
 13
0.0
 23
0.0
 14
0.5
 24
0.5
 15
0.5
 25
0.5
 16
0.0
 26
0.0
 36
1.0
 17
0.0
 27
0.0
 37
0.0
 40
266.698948158365
 41
2.031468531468532
 42
50.0
 43
0.0
 44
0.0
 50
0.0
 51
0.0
 71
    16
 72
  1000
 73
     1
 74
     1
 75
     0
 76
     0
 77
     0
 78
     0
281
     0
 65
     0
110
0.0
120
0.0
130
0.0
111
1.0
121
0.0
131
0.0
112
0.0
122
1.0
132
0.0
 79
     0
146
0.0
  0
ENDTAB
  0
TABLE
  2
LTYPE
  5
5
330
0
100
AcDbSymbolTable
 70
     1
  0
LTYPE
  5
14
330
5
100
AcDbSymbolTableRecord
100
AcDbLinetypeTableRecord
  2
ByBlock
 70
     0
  3

 72
    65
 73
     0
 40
0.0
  0
LTYPE
  5
15
330
5
100
AcDbSymbolTableRecord
100
AcDbLinetypeTableRecord
  2
ByLayer
 70
     0
  3

 72
    65
 73
     0
 40
0.0
  0
LTYPE
  5
16
330
5
100
AcDbSymbolTableRecord
100
AcDbLinetypeTableRecord
  2
Continuous
 70
     0
  3
Solid line
 72
    65
 73
     0
 40
0.0
  0
ENDTAB
  0
TABLE
  2
LAYER
  5
2
330
0
100
AcDbSymbolTable
 70
     3
  0
LAYER
  5
10
330
2
100
AcDbSymbolTableRecord
100
AcDbLayerTableRecord
  2
0
 70
     0
 62
     7
  6
Continuous
370
    -3
390
F
  0
LAYER
  5
110
330
2
100
AcDbSymbolTableRecord
100
AcDbLayerTableRecord
  2
BASIC
 70
     0
 62
   179
  6
Continuous
370
    -3
390
F
  0
LAYER
  5
18E
330
2
100
AcDbSymbolTableRecord
100
AcDbLayerTableRecord
  2
DEFPOINTS
 70
     0
 62
     7
  6
Continuous
290
     0
370
    -3
390
F
  0
ENDTAB
  0
TABLE
  2
STYLE
  5
3
330
0
100
AcDbSymbolTable
 70
     4
  0
STYLE
  5
11
330
3
100
AcDbSymbolTableRecord
100
AcDbTextStyleTableRecord
  2
Standard
 70
     0
 40
0.0
 41
1.0
 50
0.0
 71
     0
 42
0.2
  3
txt
  4

  0
STYLE
  5
11F
330
3
100
AcDbSymbolTableRecord
100
AcDbTextStyleTableRecord
  2
SLDTEXTSTYLE0
 70
     0
 40
0.0
 41
0.605
 50
0.0
 71
     0
 42
0.2
  3
TXT
  4

  0
STYLE
  5
173
330
3
100
AcDbSymbolTableRecord
100
AcDbTextStyleTableRecord
  2
SLDTEXTSTYLE1
 70
     0
 40
0.0
 41
0.5747457627118644
 50
0.0
 71
     0
 42
0.2
  3
TXT
  4

  0
STYLE
  5
179
330
3
100
AcDbSymbolTableRecord
100
AcDbTextStyleTableRecord
  2
SLDTEXTSTYLE2
 70
     0
 40
0.0
 41
0.7
 50
0.0
 71
     0
 42
0.2
  3
TXT
  4

  0
ENDTAB
  0
TABLE
  2
VIEW
  5
6
330
0
100
AcDbSymbolTable
 70
     0
  0
ENDTAB
  0
TABLE
  2
UCS
  5
7
330
0
100
AcDbSymbolTable
 70
     0
  0
ENDTAB
  0
TABLE
  2
APPID
  5
9
330
0
100
AcDbSymbolTable
 70
     1
  0
APPID
  5
12
330
9
100
AcDbSymbolTableRecord
100
AcDbRegAppTableRecord
  2
ACAD
 70
     0
  0
ENDTAB
  0
TABLE
  2
DIMSTYLE
  5
A
330
0
100
AcDbSymbolTable
 70
     1
100
AcDbDimStyleTable
  0
DIMSTYLE
105
27
330
A
100
AcDbSymbolTableRecord
100
AcDbDimStyleTableRecord
  2
Standard
 70
     0
340
11
  0
ENDTAB
  0
TABLE
  2
BLOCK_RECORD
  5
1
330
0
100
AcDbSymbolTable
 70
     4
  0
BLOCK_RECORD
  5
1F
102
{ACAD_XDICTIONARY
360
2D4
102
}
330
1
100
AcDbSymbolTableRecord
100
AcDbBlockTableRecord
  2
*Model_Space
340
22
  0
BLOCK_RECORD
  5
73
330
1
100
AcDbSymbolTableRecord
100
AcDbBlockTableRecord
  2
*Paper_Space
340
74
  0
BLOCK_RECORD
  5
BE
330
1
100
AcDbSymbolTableRecord
100
AcDbBlockTableRecord
  2
*Paper_Space0
340
BF
  0
BLOCK_RECORD
  5
118
330
1
100
AcDbSymbolTableRecord
100
AcDbBlockTableRecord
  2
_DOT
340
0
102
{BLKREFS
331
119
331
11E
331
128
331
12D
102
}
  0
BLOCK_RECORD
  5
171
330
1
100
AcDbSymbolTableRecord
100
AcDbBlockTableRecord
  2
SW_NOTE_0
340
0
102
{BLKREFS
331
172
102
}
  0
BLOCK_RECORD
  5
1A3
330
1
100
AcDbSymbolTableRecord
100
AcDbBlockTableRecord
  2
_DOTSMALL
340
0
102
{BLKREFS
331
211
331
213
331
26F
102
}
  0
ENDTAB
  0
ENDSEC
  0
SECTION
  2
BLOCKS
  0
BLOCK
  5
20
330
1F
100
AcDbEntity
  8
0
100
AcDbBlockBegin
  2
*Model_Space
 70
     0
 10
0.0
 20
0.0
 30
0.0
  3
*Model_Space
  1

  0
ENDBLK
  5
21
330
1F
100
AcDbEntity
  8
0
100
AcDbBlockEnd
  0
BLOCK
  5
75
330
73
100
AcDbEntity
 67
     1
  8
0
100
AcDbBlockBegin
  2
*Paper_Space
 70
     0
 10
0.0
 20
0.0
 30
0.0
  3
*Paper_Space
  1

  0
ENDBLK
  5
76
330
73
100
AcDbEntity
 67
     1
  8
0
100
AcDbBlockEnd
  0
BLOCK
  5
2CC
330
BE
100
AcDbEntity
  8
0
100
AcDbBlockBegin
  2
*Paper_Space0
 70
     0
 10
0.0
 20
0.0
 30
0.0
  3
*Paper_Space0
  1

  0
ENDBLK
  5
2CD
330
BE
100
AcDbEntity
  8
0
100
AcDbBlockEnd
  0
BLOCK
  5
2CE
330
118
100
AcDbEntity
  8
0
100
AcDbBlockBegin
  2
_DOT
 70
     0
 10
0.0
 20
0.0
 30
0.0
  3
_DOT
  1

  0
LWPOLYLINE
  5
12A
330
118
100
AcDbEntity
  8
0
  6
ByBlock
 62
     0
100
AcDbPolyline
 90
        2
 70
     1
 43
0.5
 10
-0.25
 20
0.0
 42
1.0
 10
0.25
 20
0.0
 42
1.0
  0
LINE
  5
12B
330
118
100
AcDbEntity
  8
0
  6
ByBlock
 62
     0
370
    -2
100
AcDbLine
 10
-0.5
 20
0.0
 30
0.0
 11
-1.0
 21
0.0
 31
0.0
  0
ENDBLK
  5
2CF
330
118
100
AcDbEntity
  8
0
100
AcDbBlockEnd
  0
BLOCK
  5
2D0
330
171
100
AcDbEntity
  8
0
100
AcDbBlockBegin
  2
SW_NOTE_0
 70
     0
 10
0.0
 20
0.0
 30
0.0
  3
SW_NOTE_0
  1

  0
MTEXT
  5
16E
330
171
100
AcDbEntity
  8
0
  6
Continuous
 62
     0
370
     0
100
AcDbMText
 10
0.0
 20
0.2062508383635144
 30
0.0
 40
0.16
 41
0.0
 71
     1
 72
     1
  1
Tel. +34 938 462 437  
  7
SLDTEXTSTYLE0
 73
     1
 44
1.0
  0
MTEXT
  5
16F
330
171
100
AcDbEntity
  8
0
  6
Continuous
 62
     0
370
     0
100
AcDbMText
 10
0.0
 20
-0.0537491623442908
 30
0.0
 40
0.16
 41
0.0
 71
     1
 72
     1
  1
Fax +34 938 711 767
  7
SLDTEXTSTYLE0
 73
     1
 44
1.0
  0
ENDBLK
  5
2D1
330
171
100
AcDbEntity
  8
0
100
AcDbBlockEnd
  0
BLOCK
  5
2D2
330
1A3
100
AcDbEntity
  8
0
100
AcDbBlockBegin
  2
_DOTSMALL
 70
     0
 10
0.0
 20
0.0
 30
0.0
  3
_DOTSMALL
  1

  0
LWPOLYLINE
  5
19D
330
1A3
100
AcDbEntity
  8
0
  6
ByBlock
370
    -2
100
AcDbPolyline
 90
        2
 70
     1
 43
0.5
 10
-0.0625
 20
0.0
 42
1.0
 10
0.0625
 20
0.0
 42
1.0
  0
LINE
  5
1A1
330
1A3
100
AcDbEntity
  8
0
  6
ByBlock
 62
     0
370
    -2
100
AcDbLine
 10
0.0
 20
0.0
 30
0.0
 11
-1.0
 21
0.0000000000000001
 31
0.0
  0
ENDBLK
  5
2D3
330
1A3
100
AcDbEntity
  8
0
100
AcDbBlockEnd
  0
ENDSEC
  0
SECTION
  2
ENTITIES
  0
LINE
  5
C1
330
1F
100
AcDbEntity
  8
0
  6
Continuous
 62
     7
370
     0
100
AcDbLine
 10
78.86357582917871
 20
101.4732110345013
 30
0.0
 11
78.86357582917871
 21
101.6732110345013
 31
0.0
  0
LINE
  5
C2
330
1F
100
AcDbEntity
  8
0
  6
Continuous
 62
     7
370
     0
100
AcDbLine
 10
76.86357582917869
 20
101.6732110345013
 30
0.0
 11
76.86357582917869
 21
101.4732110345013
 31
0.0
  0
SPLINE
  5
C3
330
1F
100
AcDbEntity
  8
0
  6
Continuous
 62
     7
370
     0
100
AcDbSpline
210
0.0
220
0.0
230
1.0
 70
     8
 71
     3
 72
    17
 73
    13
 74
     0
 42
0.00000001
 43
0.00000001
 40
0.0
 40
0.0
 40
0.0
 40
0.0
 40
0.0563767862481029
 40
0.1873344157751813
 40
0.3029825423880222
 40
0.4075765309678537
 40
0.5032639419210106
 40
0.5921041166745867
 40
0.6782858819370211
 40
0.772792236213635
 40
0.891587745885377
 40
1.0
 40
1.0
 40
1.0
 40
1.0
 10
66.91158145679172
 20
50.74370149159951
 30
0.0
 10
66.90576359102768
 20
50.72951862188005
 30
0.0
 10
66.88643140562822
 20
50.68239036591282
 30
0.0
 10
66.88273015953365
 20
50.59830792888592
 30
0.0
 10
66.8969465998919
 20
50.50392691511769
 30
0.0
 10
66.92917907775674
 20
50.42389077064006
 30
0.0
 10
66.97208014074367
 20
50.35822216865181
 30
0.0
 10
67.02217757064955
 20
50.30525157351069
 30
0.0
 10
67.07866506558628
 20
50.26186557428156
 30
0.0
 10
67.14532075455392
 20
50.22391930993723
 30
0.0
 10
67.22494421381111
 20
50.18941395082219
 30
0.0
 10
67.28397855679565
 20
50.17217902388107
 30
0.0
 10
67.3121468116408
 20
50.16395537320977
 30
0.0
  0
SPLINE
  5
C4
330
1F
100
AcDbEntity
  8
0
  6
Continuous
 62
     7
370
     0
100
AcDbSpline
210
0.0
220
0.0
230
1.0
 70
     8
 71
     3
 72
    14
 73
    10
 74
     0
 42
0.00000001
 43
0.00000001
 40
0.0
 40
0.0
 40
0.0
 40
0.0
 40
0.0826804921329517
 40
0.1980215601538158
 40
0.3709892921661527
 40
0.5448234891547897
 40
0.6861206506351404
 40
0.8415146736475521
 40
0.9999999999999999
 40
0.9999999999999999
 40
0.9999999999999999
 40
0.9999999999999999
 10
67.3121468116408
 20
50.16395537320977
 30
0.0
 10
67.32946848074104
 20
50.15982214216059
 30
0.0
 10
67.37095425146174
 20
50.1499229647401
 30
0.0
 10
67.44861804154046
 20
50.14042331114011
 30
0.0
 10
67.55080188025897
 20
50.14679089248527
 30
0.0
 10
67.6542073145205
 20
50.18351663291691
 30
0.0
 10
67.74082358362989
 20
50.2430250738537
 30
0.0
 10
67.8102910939273
 20
50.31888888455335
 30
0.0
 10
67.83827649849489
 20
50.38322057936278
 30
0.0
 10
67.8524070106964
 20
50.41570321852753
 30
0.0
  0
LINE
  5
C5
330
1F
100
AcDbEntity
  8
0
  6
Continuous
 62
     7
370
     0
100
AcDbLine
 10
66.94058837060507
 20
50.83764212090553
 30
0.0
 11
66.90827936874123
 21
50.74486189026297
 31
0.0
  0
LINE
  5
C6
330
1F
100
AcDbEntity
  8
0
  6
Continuous
 62
     7
370
     0
100
AcDbLine
 10
67.85265729695415
 20
50.41599971745457
 30
0.0
 11
67.88496629881796
 21
50.50877994809711
 31
0.0
  0
LINE
  5
C7
330
1F
100
AcDbEntity
  8
0
  6
Continuous
 62
     7
370
     0
100
AcDbLine
 10
77.91357582917858
 20
50.67321103450131
 30
0.0
 11
77.91357582917858
 21
50.58043080385876
 31
0.0
  0
LINE
  5
C8
330
1F
100
AcDbEntity
  8
0
  6
Continuous
 62
     7
370
     0
100
AcDbLine
 10
78.9135758291786
 20
50.58043080385876
 30
0.0
 11
78.9135758291786
 21
50.67321103450131
 31
0.0
  0
SPLINE
  5
C9
330
1F
100
AcDbEntity
  8
0
  6
Continuous
 62
     7
370
     0
100
AcDbSpline
210
0.0
220
0.0
230
1.0
 70
     8
 71
     3
 72
    23
 73
    19
 74
     0
 42
0.00000001
 43
0.00000001
 40
0.0
 40
0.0
 40
0.0
 40
0.0
 40
0.0080260106956743
 40
0.083751145669882
 40
0.1516438442786988
 40
0.21427993803279
 40
0.2737172542644583
 40
0.3322856858855189
 40
0.393791253694514
 40
0.4642418294940145
 40
0.5438169448736435
 40
0.6250524381642782
 40
0.6919382702492957
 40
0.7557187628368716
 40
0.8228711724412375
 40
0.893113179665684
 40
0.9652820338836609
 40
1.0
 40
1.0
 40
1.0
 40
1.0
 10
77.91496803944601
 20
50.58060624684897
 30
0.0
 10
77.91451323288086
 20
50.57664573352268
 30
0.0
 10
77.90976734201043
 20
50.53531791312786
 30
0.0
 10
77.92835889411369
 20
50.45972453423767
 30
0.0
 10
77.96868822563543
 20
50.36571182194238
 30
0.0
 10
78.0268750042843
 20
50.29049561988893
 30
0.0
 10
78.0950295628087
 20
50.23236586229696
 30
0.0
 10
78.17224921985702
 20
50.18903955349006
 30
0.0
 10
78.26056840360711
 20
50.15860140154284
 30
0.0
 10
78.36401762599107
 20
50.14177805335615
 30
0.0
 10
78.4804677999313
 20
50.14280069155869
 30
0.0
 10
78.59099249737075
 20
50.16434985098836
 30
0.0
 10
78.68718103009698
 20
50.20419914628552
 30
0.0
 10
78.7681183985345
 20
50.25931950991163
 30
0.0
 10
78.83691784896578
 20
50.33261942589159
 30
0.0
 10
78.88696617604876
 20
50.42420996214955
 30
0.0
 10
78.91309365166902
 20
50.51023586743395
 30
0.0
 10
78.91076557038627
 20
50.56341671398337
 30
0.0
 10
78.91000938504146
 20
50.58069041361036
 30
0.0
  0
SPLINE
  5
CA
330
1F
100
AcDbEntity
  8
0
  6
Continuous
 62
     7
370
     0
100
AcDbSpline
210
0.0
220
0.0
230
1.0
 70
     8
 71
     3
 72
    17
 73
    13
 74
     0
 42
0.00000001
 43
0.00000001
 40
0.0
 40
0.0
 40
0.0
 40
0.0
 40
0.1227343721542186
 40
0.2496237511805745
 40
0.3630667374495717
 40
0.4662988500154115
 40
0.5612434877390271
 40
0.6506240672384415
 40
0.7413176096465607
 40
0.8514122719630858
 40
0.9694993044875977
 40
1.0
 40
1.0
 40
1.0
 40
1.0
 10
87.32657137309222
 20
50.41671739585433
 30
0.0
 10
87.3385331121828
 20
50.38649469743186
 30
0.0
 10
87.36286153893094
 20
50.32502615183539
 30
0.0
 10
87.42708190105643
 20
50.2520218462496
 30
0.0
 10
87.49991539703605
 20
50.19781198234007
 30
0.0
 10
87.57503682287177
 20
50.16389455454681
 30
0.0
 10
87.6484808996101
 20
50.14620087627226
 30
0.0
 10
87.71977166805482
 20
50.14142758473727
 30
0.0
 10
87.79279555559346
 20
50.14738843347612
 30
0.0
 10
87.87109735201331
 20
50.16401995475117
 30
0.0
 10
87.93711516284863
 20
50.18516474461821
 30
0.0
 10
87.97314791721786
 20
50.19958067927529
 30
0.0
 10
87.98054438315764
 20
50.20253984716427
 30
0.0
  0
SPLINE
  5
CB
330
1F
100
AcDbEntity
  8
0
  6
Continuous
 62
     7
370
     0
100
AcDbSpline
210
0.0
220
0.0
230
1.0
 70
     8
 71
     3
 72
    15
 73
    11
 74
     0
 42
0.00000001
 43
0.00000001
 40
0.0
 40
0.0
 40
0.0
 40
0.0
 40
0.0758238561046291
 40
0.2267811209876047
 40
0.3669011349519254
 40
0.5237547791950093
 40
0.6564285500868492
 40
0.8041617479500105
 40
0.9578041573468689
 40
1.0
 40
1.0
 40
1.0
 40
1.0
 10
87.98054438315764
 20
50.20253984716427
 30
0.0
 10
87.99629143737957
 20
50.20933105990567
 30
0.0
 10
88.04338920834735
 20
50.22964285776821
 30
0.0
 10
88.11254413627648
 20
50.26969285514335
 30
0.0
 10
88.18962762908922
 20
50.33677181886416
 30
0.0
 10
88.2466546133382
 20
50.41847421256826
 30
0.0
 10
88.28335190597625
 20
50.51327681011367
 30
0.0
 10
88.29449112617166
 20
50.61282680698265
 30
0.0
 10
88.28898382179315
 20
50.69414840620304
 30
0.0
 10
88.26991961415541
 20
50.73515596682969
 30
0.0
 10
88.26581198810499
 20
50.74399156742192
 30
0.0
  0
LINE
  5
CC
330
1F
100
AcDbEntity
  8
0
  6
Continuous
 62
     7
370
     0
100
AcDbLine
 10
87.29218535953937
 20
50.50877994809706
 30
0.0
 11
87.32449436140318
 21
50.41599971745451
 31
0.0
  0
LINE
  5
CD
330
1F
100
AcDbEntity
  8
0
  6
Continuous
 62
     7
370
     0
100
AcDbLine
 10
88.26887228961607
 20
50.74486189026292
 30
0.0
 11
88.23656328775226
 21
50.83764212090547
 31
0.0
  0
LINE
  5
CE
330
1F
100
AcDbEntity
  8
0
  6
Continuous
 62
     7
370
     0
100
AcDbLine
 10
76.71488795051663
 20
79.75441268909377
 30
0.0
 11
79.21488795051663
 21
79.75441268909377
 31
0.0
  0
LINE
  5
CF
330
1F
100
AcDbEntity
  8
0
  6
Continuous
 62
     7
370
     0
100
AcDbLine
 10
79.21488795051663
 20
80.15441268909372
 30
0.0
 11
76.71488795051663
 21
80.15441268909372
 31
0.0
  0
LINE
  5
D0
330
1F
100
AcDbEntity
  8
0
  6
Continuous
 62
     7
370
     0
100
AcDbLine
 10
93.45901140885073
 20
85.47321103450129
 30
0.0
 11
91.96401140885077
 21
101.4732110345013
 31
0.0
  0
SPLINE
  5
D1
330
1F
100
AcDbEntity
  8
0
  6
Continuous
 62
     7
370
     0
100
AcDbSpline
210
0.0
220
0.0
230
1.0
 70
     8
 71
     3
 72
    17
 73
    13
 74
     0
 42
0.00000001
 43
0.00000001
 40
0.0
 40
0.0
 40
0.0
 40
0.0
 40
0.0984157667813166
 40
0.2014369462561723
 40
0.3046061749136206
 40
0.4086103652509756
 40
0.513974746529322
 40
0.6209472149947013
 40
0.7293621829658348
 40
0.8386388696387556
 40
0.9479405183307409
 40
1.0
 40
1.0
 40
1.0
 40
1.0
 10
67.00213569971606
 20
8.13034482074842
 30
0.0
 10
66.97898198987173
 20
8.09915948134055
 30
0.0
 10
66.93159108130013
 20
8.035329469709936
 30
0.0
 10
66.89287595555356
 20
7.920091345588247
 30
0.0
 10
66.8809443533019
 20
7.797796287214496
 30
0.0
 10
66.8996363057907
 20
7.674934570444037
 30
0.0
 10
66.94798817247329
 20
7.558850013628287
 30
0.0
 10
67.02439420010674
 20
7.456805575775704
 30
0.0
 10
67.12507789330795
 20
7.375561049689239
 30
0.0
 10
67.24360809647867
 20
7.323945932830881
 30
0.0
 10
67.35022894684197
 20
7.302347614329108
 30
0.0
 10
67.41319925013745
 20
7.311133892210478
 30
0.0
 10
67.4335151796478
 20
7.313968584005735
 30
0.0
  0
SPLINE
  5
D2
330
1F
100
AcDbEntity
  8
0
  6
Continuous
 62
     7
370
     0
100
AcDbSpline
210
0.0
220
0.0
230
1.0
 70
     8
 71
     3
 72
    18
 73
    14
 74
     0
 42
0.00000001
 43
0.00000001
 40
0.0
 40
0.0
 40
0.0
 40
0.0
 40
0.0293899779728714
 40
0.1317793979108712
 40
0.2338023192633525
 40
0.3361793538382031
 40
0.4185689485503487
 40
0.5301317939739739
 40
0.6363521564144378
 40
0.7439280094068281
 40
0.8522426299455041
 40
0.9604423288681181
 40
1.0
 40
1.0
 40
1.0
 40
1.0
 10
78.88330007626284
 20
25.16999846524324
 30
0.0
 10
78.88033514057113
 20
25.18128840873696
 30
0.0
 10
78.86704089990663
 20
25.23191049349741
 30
0.0
 10
78.81449150847179
 20
25.31103066312775
 30
0.0
 10
78.72982351800937
 20
25.39898021628316
 30
0.0
 10
78.63107701894191
 20
25.45857937080497
 30
0.0
 10
78.51911698126135
 20
25.49666739631236
 30
0.0
 10
78.3989162884069
 20
25.50858567441307
 30
0.0
 10
78.27007795422692
 20
25.48803711400271
 30
0.0
 10
78.15104977573786
 20
25.43668369186496
 30
0.0
 10
78.05049433771939
 20
25.3555478419923
 30
0.0
 10
77.98414379867151
 20
25.27533035373634
 30
0.0
 10
77.96399380812471
 20
25.22016506807451
 30
0.0
 10
77.95859924337933
 20
25.20539619240148
 30
0.0
  0
SPLINE
  5
D3
330
1F
100
AcDbEntity
  8
0
  6
Continuous
 62
     7
370
     0
100
AcDbSpline
210
0.0
220
0.0
230
1.0
 70
     8
 71
     3
 72
    18
 73
    14
 74
     0
 42
0.00000001
 43
0.00000001
 40
0.0
 40
0.0
 40
0.0
 40
0.0
 40
0.0171494221175924
 40
0.1196870631566611
 40
0.2217226583742123
 40
0.3239769164300947
 40
0.42711964445695
 40
0.5316485977196304
 40
0.6377759862963446
 40
0.7452887790394895
 40
0.8535820134717397
 40
0.9618100052114861
 40
0.9999999999999999
 40
0.9999999999999999
 40
0.9999999999999999
 40
0.9999999999999999
 10
87.69125082156724
 20
6.367264993523648
 30
0.0
 10
87.69773922681541
 20
6.365211323725902
 30
0.0
 10
87.743022278536
 20
6.350878612973261
 30
0.0
 10
87.83333201381933
 20
6.353348366286937
 30
0.0
 10
87.95300425249974
 20
6.376719447194262
 30
0.0
 10
88.06389382148052
 20
6.431390617155344
 30
0.0
 10
88.15906375939979
 20
6.511148338766134
 30
0.0
 10
88.23306123240525
 20
6.613145126290746
 30
0.0
 10
88.28032349740167
 20
6.731681622198991
 30
0.0
 10
88.2971695195273
 20
6.860147554713961
 30
0.0
 10
88.2789855231997
 20
6.988035284853396
 30
0.0
 10
88.24438675728648
 20
7.085665866402579
 30
0.0
 10
88.2077146223966
 20
7.130852336108362
 30
0.0
 10
88.19814948170905
 20
7.142638258613459
 30
0.0
  0
CIRCLE
  5
D4
330
1F
100
AcDbEntity
  8
0
  6
Continuous
 62
     7
370
     0
100
AcDbCircle
 10
77.8635758291787
 20
13.22310144236239
 30
0.0
 40
1.000000000000014
  0
CIRCLE
  5
D5
330
1F
100
AcDbEntity
  8
0
  6
Continuous
 62
     7
370
     0
100
AcDbCircle
 10
77.8635758291787
 20
13.22310144236239
 30
0.0
 40
12.00000000000003
  0
LINE
  5
D6
330
1F
100
AcDbEntity
  8
0
  6
Continuous
 62
     7
370
     0
100
AcDbLine
 10
71.77718162575066
 20
23.56504543759253
 30
0.0
 11
70.77715186250661
 21
25.29714779661228
 31
0.0
  0
LINE
  5
D7
330
1F
100
AcDbEntity
  8
0
  6
Continuous
 62
     7
370
     0
100
AcDbLine
 10
71.77718162575059
 20
2.881157447132196
 30
0.0
 11
70.77715186250657
 21
1.149055088112448
 31
0.0
  0
LINE
  5
D8
330
1F
100
AcDbEntity
  8
0
  6
Continuous
 62
     7
370
     0
100
AcDbLine
 10
71.9503867065076
 20
23.66504543759258
 30
0.0
 11
70.9503569432636
 21
25.39714779661233
 31
0.0
  0
LINE
  5
D9
330
1F
100
AcDbEntity
  8
0
  6
Continuous
 62
     7
370
     0
100
AcDbLine
 10
91.86321868176603
 20
13.32310144236241
 30
0.0
 11
89.86315915527801
 21
13.32310144236241
 31
0.0
  0
LINE
  5
DA
330
1F
100
AcDbEntity
  8
0
  6
Continuous
 62
     7
370
     0
100
AcDbLine
 10
91.86321868176603
 20
13.12310144236243
 30
0.0
 11
89.86315915527801
 21
13.12310144236243
 31
0.0
  0
LINE
  5
DB
330
1F
100
AcDbEntity
  8
0
  6
Continuous
 62
     7
370
     0
100
AcDbLine
 10
71.9503867065075
 20
2.781157447132202
 30
0.0
 11
70.95035694326346
 21
1.049055088112461
 31
0.0
  0
ARC
  5
DC
330
1F
100
AcDbEntity
  8
0
  6
Continuous
 62
     7
370
     0
100
AcDbCircle
 10
67.45838850150713
 20
7.849922741421594
 30
0.0
 40
0.517815442240258
100
AcDbArc
 50
150.2415739884005
 51
264.381564771901
  0
ARC
  5
DD
330
1F
100
AcDbEntity
  8
0
  6
Continuous
 62
     7
370
     0
100
AcDbCircle
 10
78.41104890774464
 20
24.92344399663132
 30
0.0
 40
0.5148318226826422
100
AcDbArc
 50
75.94939149992959
 51
144.499082696492
  0
ARC
  5
DE
330
1F
100
AcDbEntity
  8
0
  6
Continuous
 62
     7
370
     0
100
AcDbCircle
 10
78.43123714686214
 20
24.94361457161891
 30
0.0
 40
0.4905833455887915
100
AcDbArc
 50
29.02529606671354
 51
77.66498844322817
  0
ARC
  5
DF
330
1F
100
AcDbEntity
  8
0
  6
Continuous
 62
     7
370
     0
100
AcDbCircle
 10
87.72113328045539
 20
6.897472516122335
 30
0.0
 40
0.516749390338552
100
AcDbArc
 50
270.0586214492038
 51
24.56451731109868
  0
CIRCLE
  5
E0
330
1F
100
AcDbEntity
  8
0
  6
Continuous
 62
     7
370
     0
100
AcDbCircle
 10
77.8635758291787
 20
13.22310144236239
 30
0.0
 40
15.59543557967203
  0
CIRCLE
  5
E1
330
1F
100
AcDbEntity
  8
0
  6
Continuous
 62
     7
370
     0
100
AcDbCircle
 10
77.8635758291787
 20
13.22310144236239
 30
0.0
 40
14.10043557967207
  0
CIRCLE
  5
E2
330
1F
100
AcDbEntity
  8
0
  6
Continuous
 62
     7
370
     0
100
AcDbCircle
 10
77.8635758291787
 20
13.22310144236239
 30
0.0
 40
13.99999999999999
  0
ARC
  5
E3
330
1F
100
AcDbEntity
  8
0
  6
Continuous
 62
     7
370
     0
100
AcDbCircle
 10
78.40705188235309
 20
24.92826194535355
 30
0.0
 40
0.5087824791304256
100
AcDbArc
 50
89.26529533105172
 51
144.6793981063015
  0
ARC
  5
E4
330
1F
100
AcDbEntity
  8
0
  6
Continuous
 62
     7
370
     0
100
AcDbCircle
 10
78.42267338091052
 20
24.93465067189541
 30
0.0
 40
0.5024342948806864
100
AcDbArc
 50
29.44529362656142
 51
91.03750840795827
  0
ARC
  5
E5
330
1F
100
AcDbEntity
  8
0
  6
Continuous
 62
     7
370
     0
100
AcDbCircle
 10
67.45487145162699
 20
7.841185259264392
 30
0.0
 40
0.5087824791304986
100
AcDbArc
 50
209.2652953310599
 51
264.6793981062658
  0
ARC
  5
E6
330
1F
100
AcDbEntity
  8
0
  6
Continuous
 62
     7
370
     0
100
AcDbCircle
 10
67.44152790286567
 20
7.851519510589299
 30
0.0
 40
0.5024342948811423
100
AcDbArc
 50
149.4452936266235
 51
211.0375084079286
  0
ARC
  5
E7
330
1F
100
AcDbEntity
  8
0
  6
Continuous
 62
     7
370
     0
100
AcDbCircle
 10
87.72880415355606
 20
6.899857122469385
 30
0.0
 40
0.5087824791304659
100
AcDbArc
 50
329.2652953310581
 51
24.67939810626677
  0
ARC
  5
E8
330
1F
100
AcDbEntity
  8
0
  6
Continuous
 62
     7
370
     0
100
AcDbCircle
 10
87.72652620376111
 20
6.883134144601485
 30
0.0
 40
0.5024342948796348
100
AcDbArc
 50
269.4452936265272
 51
331.03750840803
  0
ARC
  5
E9
330
1F
100
AcDbEntity
  8
0
  6
Continuous
 62
     8
370
     0
100
AcDbCircle
 10
67.41968257763678
 20
7.827644331497353
 30
0.0
 40
0.513039369142408
100
AcDbArc
 50
144.7219420457866
 51
269.9210391649547
  0
ARC
  5
EA
330
1F
100
AcDbEntity
  8
0
  6
Continuous
 62
     8
370
     0
100
AcDbCircle
 10
78.43279524108152
 20
24.98385913255413
 30
0.0
 40
0.4873817838262513
100
AcDbArc
 50
23.73935030120895
 51
77.7701596800502
  0
ARC
  5
EB
330
1F
100
AcDbEntity
  8
0
  6
Continuous
 62
     8
370
     0
100
AcDbCircle
 10
78.41166012381653
 20
24.96146344126295
 30
0.0
 40
0.5139926896971287
100
AcDbArc
 50
75.99621161511969
 51
149.460640763519
  0
ARC
  5
EC
330
1F
100
AcDbEntity
  8
0
  6
Continuous
 62
     8
370
     0
100
AcDbCircle
 10
87.75630149724354
 20
6.877323072349498
 30
0.0
 40
0.5140401757629778
100
AcDbArc
 50
264.9363691571979
 51
29.70661205355405
  0
ARC
  5
ED
330
1F
100
AcDbEntity
  8
0
  6
Continuous
 62
     7
370
     0
100
AcDbCircle
 10
76.71488795051663
 20
79.95441268909373
 30
0.0
 40
0.1999999999999957
100
AcDbArc
 50
90.0
 51
270.0000000000008
  0
ARC
  5
EE
330
1F
100
AcDbEntity
  8
0
  6
Continuous
 62
     7
370
     0
100
AcDbCircle
 10
79.21488795051663
 20
79.95441268909373
 30
0.0
 40
0.1999999999999957
100
AcDbArc
 50
270.0
 51
89.99999999999919
  0
LINE
  5
EF
330
1F
100
AcDbEntity
  8
0
  6
Continuous
 62
     7
370
     0
100
AcDbLine
 10
63.76314024950663
 20
101.4732110345013
 30
0.0
 11
62.26814024950664
 21
85.47321103450129
 31
0.0
  0
LINE
  5
F0
330
1F
100
AcDbEntity
  8
0
  6
Continuous
 62
     7
370
     0
100
AcDbLine
 10
77.97110204676827
 20
80.31648104032844
 30
0.0
 11
76.17536606035114
 21
85.47321103450129
 31
0.0
  0
LINE
  5
F1
330
1F
100
AcDbEntity
  8
0
  6
Continuous
 62
     7
370
     0
100
AcDbLine
 10
88.2365632877524
 20
50.8376421209055
 30
0.0
 11
78.16683196985498
 21
79.75441268909377
 31
0.0
  0
LINE
  5
F2
330
1F
100
AcDbEntity
  8
0
  6
Continuous
 62
     7
370
     0
100
AcDbLine
 10
78.02753935702114
 20
80.15441268909372
 30
0.0
 11
77.97110204676827
 21
80.31648104032844
 31
0.0
  0
LINE
  5
F3
330
1F
100
AcDbEntity
  8
0
  6
Continuous
 62
     7
370
     0
100
AcDbLine
 10
75.11646795385649
 20
85.47321103450129
 30
0.0
 11
76.9686412505265
 21
80.15441268909372
 31
0.0
  0
LINE
  5
F4
330
1F
100
AcDbEntity
  8
0
  6
Continuous
 62
     7
370
     0
100
AcDbLine
 10
77.10793386336033
 20
79.75441268909377
 30
0.0
 11
87.29218535953945
 21
50.50877994809707
 31
0.0
  0
LINE
  5
F5
330
1F
100
AcDbEntity
  8
0
  6
Continuous
 62
     7
370
     0
100
AcDbLine
 10
78.91357582917867
 20
82.17911567083475
 30
0.0
 11
80.06068370450085
 21
85.47321103450129
 31
0.0
  0
LINE
  5
F6
330
1F
100
AcDbEntity
  8
0
  6
Continuous
 62
     7
370
     0
100
AcDbLine
 10
67.88496629881803
 20
50.50877994809707
 30
0.0
 11
77.5885758291787
 21
78.37417591690597
 31
0.0
  0
LINE
  5
F7
330
1F
100
AcDbEntity
  8
0
  6
Continuous
 62
     7
370
     0
100
AcDbLine
 10
79.00178559800622
 20
85.47321103450129
 30
0.0
 11
78.91357582917867
 21
85.2199032185792
 31
0.0
  0
LINE
  5
F8
330
1F
100
AcDbEntity
  8
0
  6
Continuous
 62
     7
370
     0
100
AcDbLine
 10
77.91357582917868
 20
82.34825057410463
 30
0.0
 11
77.5885758291787
 21
81.4149634646504
 31
0.0
  0
LINE
  5
F9
330
1F
100
AcDbEntity
  8
0
  6
Continuous
 62
     7
370
     0
100
AcDbLine
 10
77.01031968850242
 20
79.75441268909377
 30
0.0
 11
66.9405883706051
 21
50.8376421209055
 31
0.0
  0
LINE
  5
FA
330
1F
100
AcDbEntity
  8
0
  6
Continuous
 62
     7
370
     0
100
AcDbLine
 10
78.91357582917867
 20
50.67321103450129
 30
0.0
 11
78.91357582917867
 21
74.56923616297719
 31
0.0
  0
LINE
  5
FB
330
1F
100
AcDbEntity
  8
0
  6
Continuous
 62
     7
370
     0
100
AcDbLine
 10
78.91357582917867
 20
77.61002371072162
 30
0.0
 11
78.91357582917867
 21
79.75441268909371
 31
0.0
  0
LINE
  5
FC
330
1F
100
AcDbEntity
  8
0
  6
Continuous
 62
     7
370
     0
100
AcDbLine
 10
78.91357582917867
 20
80.15441268909372
 30
0.0
 11
78.91357582917867
 21
85.47321103450129
 31
0.0
  0
LINE
  5
FD
330
1F
100
AcDbEntity
  8
0
  6
Continuous
 62
     7
370
     0
100
AcDbLine
 10
77.91357582917868
 20
85.47321103450129
 30
0.0
 11
77.91357582917868
 21
80.48167635519617
 31
0.0
  0
LINE
  5
FE
330
1F
100
AcDbEntity
  8
0
  6
Continuous
 62
     7
370
     0
100
AcDbLine
 10
77.91357582917868
 20
77.44088880745174
 30
0.0
 11
77.91357582917868
 21
50.67321103450129
 31
0.0
  0
LINE
  5
FF
330
1F
100
AcDbEntity
  8
0
  6
Continuous
 62
     7
370
     0
100
AcDbLine
 10
76.86357582917869
 20
101.6732110345013
 30
0.0
 11
78.86357582917871
 21
101.6732110345013
 31
0.0
  0
LWPOLYLINE
  5
100
330
1F
100
AcDbEntity
  8
0
  6
Continuous
 62
     7
370
     0
100
AcDbPolyline
 90
       17
 70
   128
 43
0.0
 10
67.28337750153011
 20
50.18001198449797
 10
67.24686786610054
 20
50.19108091576588
 10
67.21102268003432
 20
50.20492504178864
 10
67.18129904797242
 20
50.21943671987658
 10
67.16222212345106
 20
50.23240667858953
 10
67.15669619529575
 20
50.24186035928639
 10
67.16556253597557
 20
50.2463585247789
 10
67.1874713254955
 20
50.24521637014679
 10
67.2190871492548
 20
50.23860777807916
 10
67.25559678468433
 20
50.22753884681121
 10
67.29144197075063
 20
50.21369472078847
 10
67.32116560281246
 20
50.19918304270053
 10
67.34024252733381
 20
50.18621308398758
 10
67.34576845548912
 20
50.17675940329072
 10
67.33690211480933
 20
50.1722612377982
 10
67.31499332528945
 20
50.17340339243032
 10
67.28337750153011
 20
50.18001198449797
  0
LWPOLYLINE
  5
101
330
1F
100
AcDbEntity
  8
0
  6
Continuous
 62
     7
370
     0
100
AcDbPolyline
 90
       13
 70
   128
 43
0.0
 10
66.94058837060507
 20
50.83764212090553
 10
66.95649660627961
 20
50.85203557739307
 10
67.00723412751711
 20
50.85972513281904
 10
67.08804893319547
 20
50.85358179081798
 10
67.19294735888067
 20
50.83406117496226
 10
67.31414956821803
 20
50.80261104002895
 10
67.44266654780422
 20
50.7615638986513
 10
67.56896678118935
 20
50.71396402952712
 10
67.68368315784838
 20
50.66334169719443
 10
67.77830768891708
 20
50.61345132846054
 10
67.84582250580442
 20
50.56799306374126
 10
67.88122034340162
 20
50.53033833457305
 10
67.88496629881796
 20
50.50877994809711
  0
LWPOLYLINE
  5
102
330
1F
100
AcDbEntity
  8
0
  6
Continuous
 62
     7
370
     0
100
AcDbPolyline
 90
       14
 70
   128
 43
0.0
 10
77.91357582917858
 20
50.67321103450131
 10
77.91578476905082
 20
50.65569625552753
 10
77.94691047483423
 20
50.60624124899499
 10
78.01264661509745
 20
50.56175308508708
 10
78.10811784103994
 20
50.52553124740103
 10
78.22624348858537
 20
50.50026214393414
 10
78.35826271884412
 20
50.48781986849208
 10
78.4943842694558
 20
50.48912720772479
 10
78.62451262772609
 20
50.50408720226203
 10
78.73899676861978
 20
50.53159033774641
 10
78.82934592713686
 20
50.56959683243751
 10
78.88885931950999
 20
50.61528791849226
 10
78.91312310968257
 20
50.66527489708078
 10
78.9135758291786
 20
50.67321103450131
  0
LWPOLYLINE
  5
103
330
1F
100
AcDbEntity
  8
0
  6
Continuous
 62
     7
370
     0
100
AcDbPolyline
 90
       17
 70
   128
 43
0.0
 10
87.95806450910253
 20
50.20153011234382
 10
87.921554873673
 20
50.18815932676539
 10
87.8857096876067
 20
50.17800852138282
 10
87.85598605554488
 20
50.17262306429839
 10
87.83690913102352
 20
50.17282284253388
 10
87.83138320286821
 20
50.1785774416639
 10
87.84024954354803
 20
50.18901077613653
 10
87.86215833306788
 20
50.20253446535671
 10
87.89377415682726
 20
50.21708965023318
 10
87.93028379225679
 20
50.23046043581162
 10
87.96612897832301
 20
50.24061124119417
 10
87.99585261038484
 20
50.2459966982786
 10
88.01492953490627
 20
50.24579692004312
 10
88.02045546306158
 20
50.24004232091309
 10
88.01158912238176
 20
50.22960898644047
 10
87.98968033286184
 20
50.21608529722029
 10
87.95806450910253
 20
50.20153011234382
  0
LINE
  5
104
330
1F
100
AcDbEntity
  8
0
  6
Continuous
 62
     7
370
     0
100
AcDbLine
 10
88.26985013539468
 20
50.73795787129761
 30
0.0
 11
88.26886210591579
 21
50.74489105093858
 31
0.0
  0
LWPOLYLINE
  5
105
330
1F
100
AcDbEntity
  8
0
  6
Continuous
 62
     7
370
     0
100
AcDbPolyline
 90
       14
 70
   128
 43
0.0
 10
87.29218535953937
 20
50.50877994809706
 10
87.29119632825882
 20
50.51433591062451
 10
87.30809359521392
 20
50.54659917206804
 10
87.35883111645141
 20
50.58825265613753
 10
87.4396459221298
 20
50.63620711447153
 10
87.54454434781498
 20
50.68690598427249
 10
87.66574655715236
 20
50.7365891622991
 10
87.79426353673853
 20
50.7815718745226
 10
87.92056377012369
 20
50.81851795895959
 10
88.03528014678275
 20
50.84468729354444
 10
88.12990467785139
 20
50.85813901844776
 10
88.1974194947387
 20
50.85787548077097
 10
88.23281733233597
 20
50.84391622589801
 10
88.23656328775226
 20
50.83764212090547
  0
LINE
  5
106
330
1F
100
AcDbEntity
  8
0
  6
Continuous
 62
     7
370
     0
100
AcDbLine
 10
62.26814024950664
 20
85.47321103450129
 30
0.0
 11
93.45901140885073
 21
85.47321103450129
 31
0.0
  0
LINE
  5
107
330
1F
100
AcDbEntity
  8
0
  6
Continuous
 62
     7
370
     0
100
AcDbLine
 10
63.76314024950663
 20
101.4732110345013
 30
0.0
 11
91.96401140885077
 21
101.4732110345013
 31
0.0
  0
LWPOLYLINE
  5
108
330
1F
100
AcDbEntity
  8
0
  6
Continuous
 62
     7
370
     0
100
AcDbPolyline
 90
        3
 70
   128
 43
0.0
 10
88.16612450717305
 20
50.85974714373451
 10
88.2186757133486
 20
50.85282987879654
 10
88.2365632877524
 20
50.8376421209055
  0
LWPOLYLINE
  5
109
330
1F
100
AcDbEntity
  8
0
  6
Continuous
 62
     7
370
     0
100
AcDbPolyline
 90
       11
 70
   128
 43
0.0
 10
87.29218535953945
 20
50.50877994809707
 10
87.29496018415983
 20
50.52851286844502
 10
87.32845042514715
 20
50.56563933094262
 10
87.39427114746701
 20
50.61074389458538
 10
87.48754072925469
 20
50.66048136022755
 10
87.60134179230893
 20
50.71116292757621
 10
87.72723423238827
 20
50.75902977663388
 10
87.85588118313154
 20
50.8005318421822
 10
87.97774148872276
 20
50.83259110587873
 10
88.08377732777008
 20
50.85282987879654
 10
88.16612450717305
 20
50.85974714373451
  0
LWPOLYLINE
  5
10A
330
1F
100
AcDbEntity
  8
0
  6
Continuous
 62
     7
370
     0
100
AcDbPolyline
 90
       11
 70
   128
 43
0.0
 10
67.01102715118442
 20
50.85974714373451
 10
67.0933743305874
 20
50.85282987879654
 10
67.19941016963472
 20
50.83259110587873
 10
67.32127047522596
 20
50.80053184218218
 10
67.44991742596923
 20
50.75902977663388
 10
67.57580986604854
 20
50.71116292757621
 10
67.68961092910278
 20
50.66048136022755
 10
67.78288051089046
 20
50.61074389458538
 10
67.84870123321032
 20
50.56563933094262
 10
67.88219147419764
 20
50.52851286844502
 10
67.88496629881803
 20
50.50877994809707
  0
LWPOLYLINE
  5
10B
330
1F
100
AcDbEntity
  8
0
  6
Continuous
 62
     7
370
     0
100
AcDbPolyline
 90
        3
 70
   128
 43
0.0
 10
66.9405883706051
 20
50.8376421209055
 10
66.95847594500887
 20
50.85282987879654
 10
67.01102715118442
 20
50.85974714373451
  0
LWPOLYLINE
  5
10C
330
1F
100
AcDbEntity
  8
0
  6
Continuous
 62
     7
370
     0
100
AcDbPolyline
 90
       14
 70
   128
 43
0.0
 10
77.91357582917868
 20
50.67321103450129
 10
77.91474144458343
 20
50.66048136022755
 10
77.94244536811928
 20
50.61074389458538
 10
78.00509088267344
 20
50.56563933094262
 10
78.09803185701566
 20
50.52851286844502
 10
78.2143752842556
 20
50.50211800697373
 10
78.3454925046306
 20
50.48841233265564
 10
78.48165915372684
 20
50.48841233265564
 10
78.6127763741018
 20
50.50211800697373
 10
78.72911980134174
 20
50.52851286844502
 10
78.82206077568392
 20
50.56563933094262
 10
78.88470629023811
 20
50.61074389458538
 10
78.91241021377394
 20
50.66048136022755
 10
78.91357582917867
 20
50.67321103450129
  0
LWPOLYLINE
  5
10D
330
1F
100
AcDbEntity
  8
0
  6
Continuous
 62
     8
370
     0
100
AcDbPolyline
 90
       13
 70
   128
 43
0.0
 10
67.85266308693086
 20
50.41601637142402
 10
67.84891134153786
 20
50.4375581039305
 10
67.81351350394058
 20
50.47521283309871
 10
67.74599868705327
 20
50.520671097818
 10
67.6513741559846
 20
50.57056146655187
 10
67.53665777932558
 20
50.62118379888457
 10
67.41035754594037
 20
50.66878366800876
 10
67.28184056635425
 20
50.7098308093864
 10
67.16063835701686
 20
50.74128094431971
 10
67.05573993133162
 20
50.76080156017544
 10
66.9749251256533
 20
50.76694490217649
 10
66.9241876044158
 20
50.75925534675052
 10
66.90828476883841
 20
50.74487737396674
  0
LWPOLYLINE
  5
10E
330
1F
100
AcDbEntity
  8
0
  6
Continuous
 62
     8
370
     0
100
AcDbPolyline
 90
       14
 70
   128
 43
0.0
 10
78.9135758291786
 20
50.58043080385876
 10
78.91312310968257
 20
50.57249466643822
 10
78.88885931950999
 20
50.5225076878497
 10
78.82934592713686
 20
50.47681660179495
 10
78.73899676861978
 20
50.43881010710383
 10
78.62451262772609
 20
50.41130697161948
 10
78.4943842694558
 20
50.39634697708222
 10
78.35826271884412
 20
50.39503963784954
 10
78.22624348858537
 20
50.40748191329159
 10
78.10811784103994
 20
50.43275101675849
 10
78.01264661509745
 20
50.46897285444453
 10
77.94691047483423
 20
50.51346101835244
 10
77.91578476905082
 20
50.56291602488497
 10
77.91357582917858
 20
50.58043080385876
  0
LWPOLYLINE
  5
10F
330
1F
100
AcDbEntity
  8
0
  6
Continuous
 62
     8
370
     0
100
AcDbPolyline
 90
       14
 70
   128
 43
0.0
 10
88.26886210591579
 20
50.74489105093858
 10
88.26512633419978
 20
50.75113599525547
 10
88.22972849660258
 20
50.76509525012843
 10
88.1622136797152
 20
50.7653587878052
 10
88.06758914864656
 20
50.75190706290189
 10
87.9528727719875
 20
50.72573772831704
 10
87.82657253860233
 20
50.68879164388005
 10
87.69805555901617
 20
50.64380893165655
 10
87.57685334967879
 20
50.59412575362992
 10
87.47195492399354
 20
50.54342688382899
 10
87.39114011831522
 20
50.49547242549498
 10
87.34040259707773
 20
50.4538189414255
 10
87.32350533012263
 20
50.42155567998196
 10
87.32451155856009
 20
50.41595057012394
  0
POINT
  5
111
330
1F
100
AcDbEntity
  8
BASIC
 62
     7
100
AcDbPoint
 10
62.2681402495066
 20
13.22310144236238
 30
0.0
  0
POINT
  5
112
330
1F
100
AcDbEntity
  8
BASIC
 62
     7
100
AcDbPoint
 10
93.45901140885073
 20
13.22310144236238
 30
0.0
  0
LINE
  5
113
330
1F
100
AcDbEntity
  8
BASIC
 62
     7
370
    -2
100
AcDbLine
 10
63.28414024950661
 20
-9.503764388167497
 30
0.0
 11
92.44301140885075
 21
-9.503764388167497
 31
0.0
  0
INSERT
  5
119
330
1F
100
AcDbEntity
  8
BASIC
 62
     7
370
    -2
100
AcDbBlockReference
  2
_DOT
 10
62.2681402495066
 20
-9.503764388167497
 30
0.0
 41
1.016
 42
1.016
 43
1.016
 50
180.0
  0
INSERT
  5
11E
330
1F
100
AcDbEntity
  8
BASIC
 62
     7
370
    -2
100
AcDbBlockReference
  2
_DOT
 10
93.45901140885073
 20
-9.503764388167497
 30
0.0
 41
1.016
 42
1.016
 43
1.016
  0
MTEXT
  5
120
330
1F
100
AcDbEntity
  8
BASIC
 62
     7
100
AcDbMText
 10
77.8635758291787
 20
-12.48468569542685
 30
0.0
 40
2.999999999999998
 41
0.0
 71
     5
 72
     1
  1
Ø31 / 12.1"
 73
     1
 44
1.0
  0
POINT
  5
121
330
1F
100
AcDbEntity
  8
BASIC
 62
     7
100
AcDbPoint
 10
67.25123232539244
 20
50.20930988128856
 30
0.0
  0
POINT
  5
122
330
1F
100
AcDbEntity
  8
BASIC
 62
     7
100
AcDbPoint
 10
77.8635758291787
 20
101.4732110345013
 30
0.0
  0
LINE
  5
123
330
1F
100
AcDbEntity
  8
BASIC
 62
     7
370
    -2
100
AcDbLine
 10
52.2681402495066
 20
51.22530988128855
 30
0.0
 11
52.2681402495066
 21
100.4572110345013
 31
0.0
  0
INSERT
  5
128
330
1F
100
AcDbEntity
  8
BASIC
 62
     7
370
    -2
100
AcDbBlockReference
  2
_DOT
 10
52.2681402495066
 20
50.20930988128856
 30
0.0
 41
1.016
 42
1.016
 43
1.016
 50
270.0
  0
INSERT
  5
12D
330
1F
100
AcDbEntity
  8
BASIC
 62
     7
370
    -2
100
AcDbBlockReference
  2
_DOT
 10
52.2681402495066
 20
101.4732110345013
 30
0.0
 41
1.016
 42
1.016
 43
1.016
 50
90.0
  0
MTEXT
  5
12E
330
1F
100
AcDbEntity
  8
BASIC
 62
     7
100
AcDbMText
 10
50.01814024950659
 20
75.84126045789493
 30
0.0
 40
2.999999999999972
 41
0.0
 71
     5
 72
     1
  1
50 cm / 19.5"
 11
-3.552713678800501E-15
 21
1.0
 31
0.0
 73
     1
 44
1.0
  0
LINE
  5
15F
330
1F
100
AcDbEntity
  8
0
  6
Continuous
 62
     7
370
    15
100
AcDbLine
 10
57.07242772420531
 20
-49.09837829687574
 30
0.0
 11
57.07242772420531
 21
-57.89837829687573
 31
0.0
  0
LINE
  5
160
330
1F
100
AcDbEntity
  8
0
  6
Continuous
 62
     7
370
    15
100
AcDbLine
 10
-47.92757227579469
 20
-45.09837829687574
 30
0.0
 11
208.0724277242052
 21
-45.09837829687574
 31
0.0
  0
LINE
  5
161
330
1F
100
AcDbEntity
  8
0
  6
Continuous
 62
     7
370
    15
100
AcDbLine
 10
-47.92757227579469
 20
-45.09837829687574
 30
0.0
 11
-47.92757227579469
 21
127.9016217031242
 31
0.0
  0
LINE
  5
162
330
1F
100
AcDbEntity
  8
0
  6
Continuous
 62
     7
370
    15
100
AcDbLine
 10
-47.92757227579469
 20
127.9016217031242
 30
0.0
 11
208.0724277242052
 21
127.9016217031242
 31
0.0
  0
LINE
  5
163
330
1F
100
AcDbEntity
  8
0
  6
Continuous
 62
     7
370
    15
100
AcDbLine
 10
208.0724277242052
 20
-45.09837829687574
 30
0.0
 11
208.0724277242052
 21
127.9016217031242
 31
0.0
  0
LINE
  5
164
330
1F
100
AcDbEntity
  8
0
  6
Continuous
 62
     7
370
    15
100
AcDbLine
 10
-47.92757227579469
 20
-49.09837829687574
 30
0.0
 11
77.0724277242053
 21
-49.09837829687574
 31
0.0
  0
LINE
  5
165
330
1F
100
AcDbEntity
  8
0
  6
Continuous
 62
     7
370
    15
100
AcDbLine
 10
-47.92757227579469
 20
-49.09837829687574
 30
0.0
 11
-47.92757227579469
 21
-57.89837829687573
 31
0.0
  0
LINE
  5
166
330
1F
100
AcDbEntity
  8
0
  6
Continuous
 62
     7
370
    15
100
AcDbLine
 10
-47.92757227579469
 20
-57.89837829687573
 30
0.0
 11
77.0724277242053
 21
-57.89837829687573
 31
0.0
  0
LINE
  5
167
330
1F
100
AcDbEntity
  8
0
  6
Continuous
 62
     7
370
     0
100
AcDbLine
 10
-47.92757227579472
 20
-53.49837829687574
 30
0.0
 11
77.07242772420528
 21
-53.49837829687574
 31
0.0
  0
LINE
  5
168
330
1F
100
AcDbEntity
  8
0
  6
Continuous
 62
     7
370
     0
100
AcDbLine
 10
-73.92757227579472
 20
142.9016217031242
 30
0.0
 11
223.0724277242052
 21
142.9016217031242
 31
0.0
  0
LINE
  5
169
330
1F
100
AcDbEntity
  8
0
  6
Continuous
 62
     7
370
     0
100
AcDbLine
 10
-73.92757227579472
 20
142.9016217031242
 30
0.0
 11
-73.92757227579472
 21
-67.09837829687575
 31
0.0
  0
LINE
  5
16A
330
1F
100
AcDbEntity
  8
0
  6
Continuous
 62
     7
370
     0
100
AcDbLine
 10
-73.92757227579472
 20
-67.09837829687575
 30
0.0
 11
223.0724277242052
 21
-67.09837829687575
 31
0.0
  0
LINE
  5
16B
330
1F
100
AcDbEntity
  8
0
  6
Continuous
 62
     7
370
    15
100
AcDbLine
 10
77.0724277242053
 20
-49.09837829687574
 30
0.0
 11
77.0724277242053
 21
-57.89837829687573
 31
0.0
  0
LINE
  5
16C
330
1F
100
AcDbEntity
  8
0
  6
Continuous
 62
     7
370
     0
100
AcDbLine
 10
223.0724277242052
 20
142.9016217031242
 30
0.0
 11
223.0724277242052
 21
-67.09837829687575
 31
0.0
  0
INSERT
  5
172
330
1F
100
AcDbEntity
  8
0
  6
Continuous
 62
     7
370
     0
100
AcDbBlockReference
  2
SW_NOTE_0
 10
79.47752374247392
 20
-53.91392015154074
 30
0.0
 41
10.0
 42
10.0
 43
10.0
  0
MTEXT
  5
174
330
1F
100
AcDbEntity
  8
0
  6
Continuous
 62
     7
370
     0
100
AcDbMText
 10
107.6755946368548
 20
-53.11620852989731
 30
0.0
 40
1.600000000000001
 41
0.0
 71
     1
 72
     1
  1
e-mail: info@santacole.com                www.santacole.com
  7
SLDTEXTSTYLE1
 73
     1
 44
1.0
  0
MTEXT
  5
175
330
1F
100
AcDbEntity
  8
0
  6
Continuous
 62
     7
370
     0
100
AcDbMText
 10
-45.64000723914586
 20
-49.72167757684636
 30
0.0
 40
3.0
 41
0.0
 71
     1
 72
     1
  1
lámpara de sobremesa TRIPODE M3
  7
SLDTEXTSTYLE0
 73
     1
 44
1.0
  0
MTEXT
  5
176
330
1F
100
AcDbEntity
  8
0
  6
Continuous
 62
     7
370
     0
100
AcDbMText
 10
60.6709429609775
 20
-50.86844525095972
 30
0.0
 40
1.800000000000004
 41
0.0
 71
     1
 72
     1
  1
cotas cm.
  7
SLDTEXTSTYLE0
 73
     1
 44
1.0
  0
MTEXT
  5
177
330
1F
100
AcDbEntity
  8
0
  6
Continuous
 62
     7
370
     0
100
AcDbMText
 10
60.53294999224602
 20
-55.22959008630519
 30
0.0
 40
1.799999999999997
 41
0.0
 71
     1
 72
     1
  1
sizes in cm.
  7
SLDTEXTSTYLE0
 73
     1
 44
1.0
  0
MTEXT
  5
178
330
1F
100
AcDbEntity
  8
0
  6
Continuous
 62
     7
370
     0
100
AcDbMText
 10
-45.67313809824725
 20
-54.17916365413833
 30
0.0
 40
3.0
 41
0.0
 71
     1
 72
     1
  1
TRIPODE M3 table lamp
  7
SLDTEXTSTYLE0
 73
     1
 44
1.0
  0
MTEXT
  5
17A
330
1F
100
AcDbEntity
  8
0
  6
Continuous
 62
     7
370
     0
100
AcDbMText
 10
175.4492986726587
 20
-54.75448010793448
 30
0.0
 40
3.174999999999997
 41
0.0
 71
     1
 72
     1
  1
SANTA & COLE
  7
SLDTEXTSTYLE2
 73
     1
 44
1.0
  0
POINT
  5
20E
330
1F
100
AcDbEntity
  8
0
100
AcDbPoint
 10
91.96401140885077
 20
101.4732110345013
 30
0.0
  0
POINT
  5
20F
330
1F
100
AcDbEntity
  8
0
100
AcDbPoint
 10
91.96401140885077
 20
85.47321103450129
 30
0.0
  0
LINE
  5
210
330
1F
100
AcDbEntity
  8
0
370
    -2
100
AcDbLine
 10
104.7812160216764
 20
98.47321103450129
 30
0.0
 11
104.7812160216764
 21
95.0632110345013
 31
0.0
  0
INSERT
  5
211
330
1F
100
AcDbEntity
  8
0
370
    -2
100
AcDbBlockReference
  2
_DOTSMALL
 10
104.7812160216764
 20
101.4732110345013
 30
0.0
 41
3.0
 42
3.0
 43
3.0
 50
90.0
  0
LINE
  5
212
330
1F
100
AcDbEntity
  8
0
370
    -2
100
AcDbLine
 10
104.7812160216764
 20
88.47321103450129
 30
0.0
 11
104.7812160216764
 21
95.0632110345013
 31
0.0
  0
INSERT
  5
213
330
1F
100
AcDbEntity
  8
0
370
    -2
100
AcDbBlockReference
  2
_DOTSMALL
 10
104.7812160216764
 20
85.47321103450129
 30
0.0
 41
3.0
 42
3.0
 43
3.0
 50
270.0
  0
MTEXT
  5
214
330
1F
100
AcDbEntity
  8
0
100
AcDbMText
 10
108.416234672539
 20
93.76458841579671
 30
0.0
 40
3.0
 41
0.0
 71
     5
 72
     1
  1
16 cm / 6.2"
 11
6.123031769111886E-17
 21
1.0
 31
0.0
 73
     1
 44
1.0
  0
POINT
  5
240
330
1F
100
AcDbEntity
  8
0
100
AcDbPoint
 10
66.88655365326166
 20
50.64974950610195
 30
0.0
  0
POINT
  5
241
330
1F
100
AcDbEntity
  8
0
100
AcDbPoint
 10
88.26985013539468
 20
50.73795787129761
 30
0.0
  0
LINE
  5
242
330
1F
100
AcDbEntity
  8
0
370
    -2
100
AcDbLine
 10
66.88655365326166
 20
42.55390826205162
 30
0.0
 11
88.26985013539468
 21
42.55390826205162
 31
0.0
  0
MTEXT
  5
246
330
1F
100
AcDbEntity
  8
0
100
AcDbMText
 10
77.57820189432817
 20
39.39991775286993
 30
0.0
 40
3.0
 41
0.0
 71
     5
 72
     1
  1
21 cm / 8.2"
 73
     1
 44
1.0
  0
LWPOLYLINE
  5
249
330
1F
100
AcDbEntity
  8
0
  6
ByBlock
370
    -2
100
AcDbPolyline
 90
        2
 70
     1
 43
1.5
 10
66.69905365326166
 20
42.55390826205162
 42
1.0
 10
67.07405365326166
 20
42.55390826205162
 42
1.0
  0
LWPOLYLINE
  5
24E
330
1F
100
AcDbEntity
  8
0
  6
ByBlock
370
    -2
100
AcDbPolyline
 90
        2
 70
     1
 43
1.5
 10
88.45735013539468
 20
42.55390826205162
 42
1.0
 10
88.08235013539468
 20
42.55390826205162
 42
1.0
  0
POINT
  5
26C
330
1F
100
AcDbEntity
  8
0
100
AcDbPoint
 10
63.76314024950663
 20
101.4732110345013
 30
0.0
  0
POINT
  5
26D
330
1F
100
AcDbEntity
  8
0
100
AcDbPoint
 10
91.96401140885077
 20
101.4732110345013
 30
0.0
  0
LINE
  5
26E
330
1F
100
AcDbEntity
  8
0
370
    -2
100
AcDbLine
 10
63.76314024950663
 20
109.9639305071215
 30
0.0
 11
91.96401140885077
 21
109.9639305071215
 31
0.0
  0
INSERT
  5
26F
330
1F
100
AcDbEntity
  8
0
370
    -2
100
AcDbBlockReference
  2
_DOTSMALL
 10
63.76314024950663
 20
109.9639305071215
 30
0.0
 41
3.0
 42
3.0
 43
3.0
 50
180.0
  0
MTEXT
  5
271
330
1F
100
AcDbEntity
  8
0
100
AcDbMText
 10
78.45951437175752
 20
112.7390478883222
 30
0.0
 40
3.0
 41
0.0
 71
     5
 72
     1
  1
Ø28 cm / 10.9"
 73
     1
 44
1.0
  0
LWPOLYLINE
  5
272
330
1F
100
AcDbEntity
  8
0
  6
ByBlock
370
    -2
100
AcDbPolyline
 90
        2
 70
     1
 43
1.5
 10
92.15151140885077
 20
109.9639305071215
 42
1.0
 10
91.77651140885077
 20
109.9639305071215
 42
1.0
  0
VIEWPORT
  5
247
330
73
100
AcDbEntity
 67
     1
  8
0
100
AcDbViewport
 10
7.8
 20
4.5
 30
0.0
 40
15.64
 41
9.0
 68
     1
 69
     1
 12
6.0
 22
4.5
 13
0.0
 23
0.0
 14
0.5
 24
0.5
 15
0.5
 25
0.5
 16
0.0
 26
0.0
 36
1.0
 17
0.0
 27
0.0
 37
0.0
 42
50.0
 43
0.0
 44
0.0
 45
12.0
 50
0.0
 51
0.0
 72
   100
 90
   557168
  1

281
     0
 71
     0
 74
     0
110
0.0
120
0.0
130
0.0
111
1.0
121
0.0
131
0.0
112
0.0
122
1.0
132
0.0
 79
     0
146
0.0
  0
ENDSEC
  0
SECTION
  2
OBJECTS
  0
DICTIONARY
  5
C
330
0
100
AcDbDictionary
281
     1
  3
ACAD_COLOR
350
6C
  3
ACAD_GROUP
350
D
  3
ACAD_LAYOUT
350
1A
  3
ACAD_MATERIAL
350
6B
  3
ACAD_MLEADERSTYLE
350
15B
  3
ACAD_MLINESTYLE
350
17
  3
ACAD_PLOTSETTINGS
350
19
  3
ACAD_PLOTSTYLENAME
350
E
  3
ACAD_SCALELIST
350
99
  3
ACAD_TABLESTYLE
350
92
  3
ACDB_RECOMPOSE_DATA
350
18B
  3
ACDBHEADERROUNDTRIPXREC
350
2D6
  3
AcDbVariableDictionary
350
59
  3
DWGPROPS
350
2D9
  0
DICTIONARY
  5
2D4
330
1F
100
AcDbDictionary
280
     1
281
     1
  0
DICTIONARY
  5
6C
102
{ACAD_REACTORS
330
C
102
}
330
C
100
AcDbDictionary
281
     1
  0
DICTIONARY
  5
D
102
{ACAD_REACTORS
330
C
102
}
330
C
100
AcDbDictionary
281
     1
  0
DICTIONARY
  5
1A
102
{ACAD_REACTORS
330
C
102
}
330
C
100
AcDbDictionary
281
     1
  3
Layout1
350
74
  3
Layout2
350
BF
  3
Model
350
22
  0
DICTIONARY
  5
6B
102
{ACAD_REACTORS
330
C
102
}
330
C
100
AcDbDictionary
281
     1
  0
DICTIONARY
  5
15B
102
{ACAD_REACTORS
330
C
102
}
330
C
100
AcDbDictionary
281
     1
  0
DICTIONARY
  5
17
102
{ACAD_REACTORS
330
C
102
}
330
C
100
AcDbDictionary
281
     1
  3
Standard
350
18
  0
DICTIONARY
  5
19
102
{ACAD_REACTORS
330
C
102
}
330
C
100
AcDbDictionary
281
     1
  0
ACDBDICTIONARYWDFLT
  5
E
102
{ACAD_REACTORS
330
C
102
}
330
C
100
AcDbDictionary
281
     1
  3
Normal
350
F
100
AcDbDictionaryWithDefault
340
F
  0
DICTIONARY
  5
99
102
{ACAD_REACTORS
330
C
102
}
330
C
100
AcDbDictionary
281
     1
  3
A0
350
134
  3
A1
350
135
  3
A2
350
136
  3
A3
350
137
  3
A4
350
138
  3
A5
350
139
  3
A6
350
13A
  3
A7
350
13B
  3
A8
350
13C
  3
A9
350
13D
  3
B0
350
13E
  3
B1
350
13F
  3
B2
350
140
  3
B3
350
141
  3
B4
350
142
  3
B5
350
143
  3
B6
350
144
  3
B7
350
145
  3
B8
350
146
  3
B9
350
147
  3
C0
350
148
  3
C1
350
149
  3
C2
350
14A
  3
C3
350
14B
  3
C4
350
14C
  3
C5
350
14D
  3
C6
350
14E
  3
C7
350
14F
  3
C8
350
150
  3
C9
350
151
  3
D0
350
152
  3
D1
350
153
  3
D2
350
154
  0
DICTIONARY
  5
92
102
{ACAD_REACTORS
330
C
102
}
330
C
100
AcDbDictionary
281
     1
  3
Standard
350
130
  0
XRECORD
  5
18B
102
{ACAD_REACTORS
330
C
102
}
330
C
100
AcDbXrecord
280
     1
 90
        1
  0
DICTIONARY
  5
2D6
102
{ACAD_REACTORS
330
C
102
}
330
C
100
AcDbDictionary
281
     1
  3
COLORDICT
350
2D7
  3
MATERIALDICT
350
2D8
  0
DICTIONARY
  5
59
102
{ACAD_REACTORS
330
C
102
}
330
C
100
AcDbDictionary
281
     1
  3
CANNOSCALE
350
2D5
  3
CTABLESTYLE
350
98
  3
DIMASSOC
350
132
  3
HIDETEXT
350
133
  3
XCLIPFRAME
350
15C
  0
XRECORD
  5
2D9
102
{ACAD_REACTORS
330
C
102
}
330
C
100
AcDbXrecord
280
     1
  1
DWGPROPS COOKIE
  2

  3

  4

  6

  7

  8
ClaudiaR
  9

300
=
301
=
302
=
303
=
304
=
305
=
306
=
307
=
308
=
309
=
 40
0.0
 41
2453353.717125822
 42
2455659.406303067
  1

 90
        0
  0
LAYOUT
  5
74
102
{ACAD_REACTORS
330
1A
102
}
330
1A
100
AcDbPlotSettings
  1

  2
\\ADSCCNDC1\hq601xrx1
  4

  6

 40
0.0
 41
0.0
 42
0.0
 43
0.0
 44
0.0
 45
0.0
 46
0.0
 47
0.0
 48
0.0
 49
0.0
140
0.0
141
0.0
142
1.0
143
1.0
 70
   688
 72
     0
 73
     0
 74
     5
  7

 75
    16
147
1.0
148
0.0
149
0.0
100
AcDbLayout
  1
Layout1
 70
     1
 71
     1
 10
0.0
 20
0.0
 11
12.0
 21
9.0
 12
0.0
 22
0.0
 32
0.0
 14
0.0
 24
0.0
 34
0.0
 15
0.0
 25
0.0
 35
0.0
146
0.0
 13
0.0
 23
0.0
 33
0.0
 16
1.0
 26
0.0
 36
0.0
 17
0.0
 27
1.0
 37
0.0
 76
     0
330
73
331
247
  0
LAYOUT
  5
BF
102
{ACAD_REACTORS
330
1A
102
}
330
1A
100
AcDbPlotSettings
  1

  2
none_device
  4
Sun_Hi-Res_(1280.00_x_1600.00_Pixels)
  6

 40
0.0
 41
0.0
 42
0.0
 43
0.0
 44
1280.0
 45
1600.0
 46
0.0
 47
0.0
 48
0.0
 49
0.0
140
0.0
141
0.0
142
1.0
143
1.0
 70
   544
 72
     2
 73
     0
 74
     5
  7

 75
    16
147
1.0
148
0.0
149
0.0
100
AcDbLayout
  1
Layout2
 70
     1
 71
     2
 10
0.0
 20
0.0
 11
12.0
 21
9.0
 12
0.0
 22
0.0
 32
0.0
 14
1.000000000000000E+20
 24
1.000000000000000E+20
 34
1.000000000000000E+20
 15
-1.000000000000000E+20
 25
-1.000000000000000E+20
 35
-1.000000000000000E+20
146
0.0
 13
0.0
 23
0.0
 33
0.0
 16
1.0
 26
0.0
 36
0.0
 17
0.0
 27
1.0
 37
0.0
 76
     0
330
BE
  0
LAYOUT
  5
22
102
{ACAD_REACTORS
330
1A
102
}
330
1A
100
AcDbPlotSettings
  1

  2
none_device
  4
Sun_Hi-Res_(1280.00_x_1600.00_Pixels)
  6

 40
6.349999904632568
 41
6.349999904632568
 42
6.350006103515625
 43
6.350006103515625
 44
1280.0
 45
1600.0
 46
0.0
 47
0.0
 48
-76.8976
 49
-69.1984
140
226.0424
141
145.0016
142
1.0
143
1.0
 70
 11940
 72
     2
 73
     0
 74
     4
  7

 75
     0
147
4.225259127219911
148
0.1311165230791651
149
0.096403374003771
100
AcDbLayout
  1
Model
 70
     1
 71
     0
 10
0.0
 20
0.0
 11
12.0
 21
9.0
 12
0.0
 22
0.0
 32
0.0
 14
-73.92757227579472
 24
-67.09837829687575
 34
0.0
 15
223.0724277242052
 25
142.9016217031242
 35
0.0
146
0.0
 13
0.0
 23
0.0
 33
0.0
 16
1.0
 26
0.0
 36
0.0
 17
0.0
 27
1.0
 37
0.0
 76
     0
330
1F
331
97
  0
MLINESTYLE
  5
18
102
{ACAD_REACTORS
330
17
102
}
330
17
100
AcDbMlineStyle
  2
Standard
 70
     0
  3

 62
   256
 51
90.0
 52
90.0
 71
     2
 49
0.5
 62
   256
  6
BYLAYER
 49
-0.5
 62
   256
  6
BYLAYER
  0
ACDBPLACEHOLDER
  5
F
102
{ACAD_REACTORS
330
E
102
}
330
E
  0
SCALE
  5
134
102
{ACAD_REACTORS
330
99
102
}
330
99
100
AcDbScale
 70
     0
300
1:1
140
1.0
141
1.0
290
     1
  0
SCALE
  5
135
102
{ACAD_REACTORS
330
99
102
}
330
99
100
AcDbScale
 70
     0
300
1:2
140
1.0
141
2.0
290
     0
  0
SCALE
  5
136
102
{ACAD_REACTORS
330
99
102
}
330
99
100
AcDbScale
 70
     0
300
1:4
140
1.0
141
4.0
290
     0
  0
SCALE
  5
137
102
{ACAD_REACTORS
330
99
102
}
330
99
100
AcDbScale
 70
     0
300
1:5
140
1.0
141
5.0
290
     0
  0
SCALE
  5
138
102
{ACAD_REACTORS
330
99
102
}
330
99
100
AcDbScale
 70
     0
300
1:8
140
1.0
141
8.0
290
     0
  0
SCALE
  5
139
102
{ACAD_REACTORS
330
99
102
}
330
99
100
AcDbScale
 70
     0
300
1:10
140
1.0
141
10.0
290
     0
  0
SCALE
  5
13A
102
{ACAD_REACTORS
330
99
102
}
330
99
100
AcDbScale
 70
     0
300
1:16
140
1.0
141
16.0
290
     0
  0
SCALE
  5
13B
102
{ACAD_REACTORS
330
99
102
}
330
99
100
AcDbScale
 70
     0
300
1:20
140
1.0
141
20.0
290
     0
  0
SCALE
  5
13C
102
{ACAD_REACTORS
330
99
102
}
330
99
100
AcDbScale
 70
     0
300
1:30
140
1.0
141
30.0
290
     0
  0
SCALE
  5
13D
102
{ACAD_REACTORS
330
99
102
}
330
99
100
AcDbScale
 70
     0
300
1:40
140
1.0
141
40.0
290
     0
  0
SCALE
  5
13E
102
{ACAD_REACTORS
330
99
102
}
330
99
100
AcDbScale
 70
     0
300
1:50
140
1.0
141
50.0
290
     0
  0
SCALE
  5
13F
102
{ACAD_REACTORS
330
99
102
}
330
99
100
AcDbScale
 70
     0
300
1:100
140
1.0
141
100.0
290
     0
  0
SCALE
  5
140
102
{ACAD_REACTORS
330
99
102
}
330
99
100
AcDbScale
 70
     0
300
2:1
140
2.0
141
1.0
290
     0
  0
SCALE
  5
141
102
{ACAD_REACTORS
330
99
102
}
330
99
100
AcDbScale
 70
     0
300
4:1
140
4.0
141
1.0
290
     0
  0
SCALE
  5
142
102
{ACAD_REACTORS
330
99
102
}
330
99
100
AcDbScale
 70
     0
300
8:1
140
8.0
141
1.0
290
     0
  0
SCALE
  5
143
102
{ACAD_REACTORS
330
99
102
}
330
99
100
AcDbScale
 70
     0
300
10:1
140
10.0
141
1.0
290
     0
  0
SCALE
  5
144
102
{ACAD_REACTORS
330
99
102
}
330
99
100
AcDbScale
 70
     0
300
100:1
140
100.0
141
1.0
290
     0
  0
SCALE
  5
145
102
{ACAD_REACTORS
330
99
102
}
330
99
100
AcDbScale
 70
     0
300
1/128" = 1'-0"
140
0.0078125
141
12.0
290
     0
  0
SCALE
  5
146
102
{ACAD_REACTORS
330
99
102
}
330
99
100
AcDbScale
 70
     0
300
1/64" = 1'-0"
140
0.015625
141
12.0
290
     0
  0
SCALE
  5
147
102
{ACAD_REACTORS
330
99
102
}
330
99
100
AcDbScale
 70
     0
300
1/32" = 1'-0"
140
0.03125
141
12.0
290
     0
  0
SCALE
  5
148
102
{ACAD_REACTORS
330
99
102
}
330
99
100
AcDbScale
 70
     0
300
1/16" = 1'-0"
140
0.0625
141
12.0
290
     0
  0
SCALE
  5
149
102
{ACAD_REACTORS
330
99
102
}
330
99
100
AcDbScale
 70
     0
300
3/32" = 1'-0"
140
0.09375
141
12.0
290
     0
  0
SCALE
  5
14A
102
{ACAD_REACTORS
330
99
102
}
330
99
100
AcDbScale
 70
     0
300
1/8" = 1'-0"
140
0.125
141
12.0
290
     0
  0
SCALE
  5
14B
102
{ACAD_REACTORS
330
99
102
}
330
99
100
AcDbScale
 70
     0
300
3/16" = 1'-0"
140
0.1875
141
12.0
290
     0
  0
SCALE
  5
14C
102
{ACAD_REACTORS
330
99
102
}
330
99
100
AcDbScale
 70
     0
300
1/4" = 1'-0"
140
0.25
141
12.0
290
     0
  0
SCALE
  5
14D
102
{ACAD_REACTORS
330
99
102
}
330
99
100
AcDbScale
 70
     0
300
3/8" = 1'-0"
140
0.375
141
12.0
290
     0
  0
SCALE
  5
14E
102
{ACAD_REACTORS
330
99
102
}
330
99
100
AcDbScale
 70
     0
300
1/2" = 1'-0"
140
0.5
141
12.0
290
     0
  0
SCALE
  5
14F
102
{ACAD_REACTORS
330
99
102
}
330
99
100
AcDbScale
 70
     0
300
3/4" = 1'-0"
140
0.75
141
12.0
290
     0
  0
SCALE
  5
150
102
{ACAD_REACTORS
330
99
102
}
330
99
100
AcDbScale
 70
     0
300
1" = 1'-0"
140
1.0
141
12.0
290
     0
  0
SCALE
  5
151
102
{ACAD_REACTORS
330
99
102
}
330
99
100
AcDbScale
 70
     0
300
1-1/2" = 1'-0"
140
1.5
141
12.0
290
     0
  0
SCALE
  5
152
102
{ACAD_REACTORS
330
99
102
}
330
99
100
AcDbScale
 70
     0
300
3" = 1'-0"
140
3.0
141
12.0
290
     0
  0
SCALE
  5
153
102
{ACAD_REACTORS
330
99
102
}
330
99
100
AcDbScale
 70
     0
300
6" = 1'-0"
140
6.0
141
12.0
290
     0
  0
SCALE
  5
154
102
{ACAD_REACTORS
330
99
102
}
330
99
100
AcDbScale
 70
     0
300
1'-0" = 1'-0"
140
12.0
141
12.0
290
     0
  0
TABLESTYLE
  5
130
102
{ACAD_REACTORS
330
92
102
}
330
92
100
AcDbTableStyle
  3
Standard
 70
     0
 71
     0
 40
0.06
 41
0.06
280
     0
281
     0
  7
Standard
140
0.25
170
     5
 62
     0
 63
   257
283
     0
274
    -2
284
     1
 64
     0
275
    -2
285
     1
 65
     0
276
    -2
286
     1
 66
     0
277
    -2
287
     1
 67
     0
278
    -2
288
     1
 68
     0
279
    -2
289
     1
 69
     0
  7
Standard
140
0.18
170
     5
 62
     0
 63
   257
283
     0
274
    -2
284
     1
 64
     0
275
    -2
285
     1
 65
     0
276
    -2
286
     1
 66
     0
277
    -2
287
     1
 67
     0
278
    -2
288
     1
 68
     0
279
    -2
289
     1
 69
     0
  7
Standard
140
0.18
170
     2
 62
     0
 63
   257
283
     0
274
    -2
284
     1
 64
     0
275
    -2
285
     1
 65
     0
276
    -2
286
     1
 66
     0
277
    -2
287
     1
 67
     0
278
    -2
288
     1
 68
     0
279
    -2
289
     1
 69
     0
  0
XRECORD
  5
2D7
102
{ACAD_REACTORS
330
2D6
102
}
330
2D6
100
AcDbXrecord
280
     1
340
6C
  0
XRECORD
  5
2D8
102
{ACAD_REACTORS
330
2D6
102
}
330
2D6
100
AcDbXrecord
280
     1
340
6B
  0
DICTIONARYVAR
  5
2D5
102
{ACAD_REACTORS
330
59
102
}
330
59
100
DictionaryVariables
280
     0
  1
1:1
  0
DICTIONARYVAR
  5
98
102
{ACAD_REACTORS
330
59
102
}
330
59
100
DictionaryVariables
280
     0
  1

  0
DICTIONARYVAR
  5
132
102
{ACAD_REACTORS
330
59
102
}
330
59
100
DictionaryVariables
280
     0
  1
2
  0
DICTIONARYVAR
  5
133
102
{ACAD_REACTORS
330
59
102
}
330
59
100
DictionaryVariables
280
     0
  1
1
  0
DICTIONARYVAR
  5
15C
102
{ACAD_REACTORS
330
59
102
}
330
59
100
DictionaryVariables
280
     0
  1
0
  0
ENDSEC
  0
EOF
