  0
SECTION
  2
HEADER
  9
$ACADVER
  1
AC1015
  9
$ACADMAINTVER
 70
     6
  9
$DWGCODEPAGE
  3
ANSI_1252
  9
$INSBASE
 10
0.0
 20
0.0
 30
0.0
  9
$EXTMIN
 10
-0.2174339858313526
 20
-1.017155882906057
 30
0.0
  9
$EXTMAX
 10
1.114617545045427
 20
1.596954155473857
 30
0.0
  9
$LIMMIN
 10
0.0
 20
0.0
  9
$LIMMAX
 10
12.0
 20
9.0
  9
$ORTHOMODE
 70
     1
  9
$REGENMODE
 70
     1
  9
$FILLMODE
 70
     1
  9
$QTEXTMODE
 70
     0
  9
$MIRRTEXT
 70
     0
  9
$LTSCALE
 40
0.5
  9
$ATTMODE
 70
     1
  9
$TEXTSIZE
 40
0.2
  9
$TRACEWID
 40
0.05
  9
$TEXTSTYLE
  7
Standard
  9
$CLAYER
  8
0
  9
$CELTYPE
  6
ByLayer
  9
$CECOLOR
 62
   256
  9
$CELTSCALE
 40
0.5
  9
$DISPSILH
 70
     0
  9
$DIMSCALE
 40
1.0
  9
$DIMASZ
 40
0.1
  9
$DIMEXO
 40
0.02
  9
$DIMDLI
 40
0.38
  9
$DIMRND
 40
0.0
  9
$DIMDLE
 40
0.0
  9
$DIMEXE
 40
0.018
  9
$DIMTP
 40
0.0
  9
$DIMTM
 40
0.0
  9
$DIMTXT
 40
0.2
  9
$DIMCEN
 40
0.0
  9
$DIMTSZ
 40
0.0
  9
$DIMTOL
 70
     0
  9
$DIMLIM
 70
     0
  9
$DIMTIH
 70
     0
  9
$DIMTOH
 70
     0
  9
$DIMSE1
 70
     0
  9
$DIMSE2
 70
     0
  9
$DIMTAD
 70
     0
  9
$DIMZIN
 70
     0
  9
$DIMBLK
  1
NONE
  9
$DIMASO
 70
     1
  9
$DIMSHO
 70
     1
  9
$DIMPOST
  1

  9
$DIMAPOST
  1

  9
$DIMALT
 70
     0
  9
$DIMALTD
 70
     2
  9
$DIMALTF
 40
25.4
  9
$DIMLFAC
 40
1.0
  9
$DIMTOFL
 70
     0
  9
$DIMTVP
 40
0.0
  9
$DIMTIX
 70
     0
  9
$DIMSOXD
 70
     0
  9
$DIMSAH
 70
     0
  9
$DIMBLK1
  1

  9
$DIMBLK2
  1

  9
$DIMSTYLE
  2
S&C_cotas
  9
$DIMCLRD
 70
   256
  9
$DIMCLRE
 70
   256
  9
$DIMCLRT
 70
   256
  9
$DIMTFAC
 40
1.0
  9
$DIMGAP
 40
0.0
  9
$DIMJUST
 70
     0
  9
$DIMSD1
 70
     1
  9
$DIMSD2
 70
     1
  9
$DIMTOLJ
 70
     1
  9
$DIMTZIN
 70
     0
  9
$DIMALTZ
 70
     0
  9
$DIMALTTZ
 70
     0
  9
$DIMUPT
 70
     0
  9
$DIMDEC
 70
     0
  9
$DIMTDEC
 70
     0
  9
$DIMALTU
 70
     2
  9
$DIMALTTD
 70
     2
  9
$DIMTXSTY
  7
ARIAL
  9
$DIMAUNIT
 70
     0
  9
$DIMADEC
 70
     2
  9
$DIMALTRND
 40
0.0
  9
$DIMAZIN
 70
     0
  9
$DIMDSEP
 70
    46
  9
$DIMATFIT
 70
     3
  9
$DIMFRAC
 70
     0
  9
$DIMLDRBLK
  1
NONE
  9
$DIMLUNIT
 70
     2
  9
$DIMLWD
 70
    -2
  9
$DIMLWE
 70
    -2
  9
$DIMTMOVE
 70
     0
  9
$LUNITS
 70
     2
  9
$LUPREC
 70
     4
  9
$SKETCHINC
 40
0.1
  9
$FILLETRAD
 40
0.0
  9
$AUNITS
 70
     0
  9
$AUPREC
 70
     0
  9
$MENU
  1
.
  9
$ELEVATION
 40
0.0
  9
$PELEVATION
 40
0.0
  9
$THICKNESS
 40
0.0
  9
$LIMCHECK
 70
     0
  9
$CHAMFERA
 40
0.0
  9
$CHAMFERB
 40
0.0
  9
$CHAMFERC
 40
0.0
  9
$CHAMFERD
 40
0.0
  9
$SKPOLY
 70
     0
  9
$TDCREATE
 40
2453353.800459155
  9
$TDUCREATE
 40
2453353.717125822
  9
$TDUPDATE
 40
2456386.784694606
  9
$TDUUPDATE
 40
2456386.701361273
  9
$TDINDWG
 40
0.1703577431
  9
$TDUSRTIMER
 40
2456386.701261667
  9
$USRTIMER
 70
     1
  9
$ANGBASE
 50
0.0
  9
$ANGDIR
 70
     0
  9
$PDMODE
 70
     0
  9
$PDSIZE
 40
0.0
  9
$PLINEWID
 40
0.0
  9
$SPLFRAME
 70
     0
  9
$SPLINETYPE
 70
     6
  9
$SPLINESEGS
 70
     8
  9
$HANDSEED
  5
11ED
  9
$SURFTAB1
 70
     6
  9
$SURFTAB2
 70
     6
  9
$SURFTYPE
 70
     6
  9
$SURFU
 70
     6
  9
$SURFV
 70
     6
  9
$UCSBASE
  2

  9
$UCSNAME
  2

  9
$UCSORG
 10
0.0
 20
0.0
 30
0.0
  9
$UCSXDIR
 10
1.0
 20
0.0
 30
0.0
  9
$UCSYDIR
 10
0.0
 20
1.0
 30
0.0
  9
$UCSORTHOREF
  2

  9
$UCSORTHOVIEW
 70
     0
  9
$UCSORGTOP
 10
0.0
 20
0.0
 30
0.0
  9
$UCSORGBOTTOM
 10
0.0
 20
0.0
 30
0.0
  9
$UCSORGLEFT
 10
0.0
 20
0.0
 30
0.0
  9
$UCSORGRIGHT
 10
0.0
 20
0.0
 30
0.0
  9
$UCSORGFRONT
 10
0.0
 20
0.0
 30
0.0
  9
$UCSORGBACK
 10
0.0
 20
0.0
 30
0.0
  9
$PUCSBASE
  2

  9
$PUCSNAME
  2

  9
$PUCSORG
 10
0.0
 20
0.0
 30
0.0
  9
$PUCSXDIR
 10
1.0
 20
0.0
 30
0.0
  9
$PUCSYDIR
 10
0.0
 20
1.0
 30
0.0
  9
$PUCSORTHOREF
  2

  9
$PUCSORTHOVIEW
 70
     0
  9
$PUCSORGTOP
 10
0.0
 20
0.0
 30
0.0
  9
$PUCSORGBOTTOM
 10
0.0
 20
0.0
 30
0.0
  9
$PUCSORGLEFT
 10
0.0
 20
0.0
 30
0.0
  9
$PUCSORGRIGHT
 10
0.0
 20
0.0
 30
0.0
  9
$PUCSORGFRONT
 10
0.0
 20
0.0
 30
0.0
  9
$PUCSORGBACK
 10
0.0
 20
0.0
 30
0.0
  9
$USERI1
 70
     0
  9
$USERI2
 70
     0
  9
$USERI3
 70
     0
  9
$USERI4
 70
     0
  9
$USERI5
 70
     0
  9
$USERR1
 40
0.0
  9
$USERR2
 40
0.0
  9
$USERR3
 40
0.0
  9
$USERR4
 40
0.0
  9
$USERR5
 40
0.0
  9
$WORLDVIEW
 70
     1
  9
$SHADEDGE
 70
     3
  9
$SHADEDIF
 70
    70
  9
$TILEMODE
 70
     1
  9
$MAXACTVP
 70
    64
  9
$PINSBASE
 10
0.0
 20
0.0
 30
0.0
  9
$PLIMCHECK
 70
     0
  9
$PEXTMIN
 10
0.0
 20
0.0
 30
0.0
  9
$PEXTMAX
 10
0.0
 20
0.0
 30
0.0
  9
$PLIMMIN
 10
0.0
 20
0.0
  9
$PLIMMAX
 10
0.0
 20
0.0
  9
$UNITMODE
 70
     0
  9
$VISRETAIN
 70
     1
  9
$PLINEGEN
 70
     0
  9
$PSLTSCALE
 70
     1
  9
$TREEDEPTH
 70
  3020
  9
$CMLSTYLE
  2
Standard
  9
$CMLJUST
 70
     0
  9
$CMLSCALE
 40
1.0
  9
$PROXYGRAPHICS
 70
     1
  9
$MEASUREMENT
 70
     0
  9
$CELWEIGHT
370
    -1
  9
$ENDCAPS
280
     0
  9
$JOINSTYLE
280
     0
  9
$LWDISPLAY
290
     0
  9
$INSUNITS
 70
     1
  9
$HYPERLINKBASE
  1

  9
$STYLESHEET
  1

  9
$XEDIT
290
     0
  9
$CEPSNTYPE
380
     0
  9
$PSTYLEMODE
290
     0
  9
$FINGERPRINTGUID
  2
{8BAE0D3F-6380-4E3D-B0D1-267E31F469C1}
  9
$VERSIONGUID
  2
{6F1AD05E-3764-4268-ADD0-261F181DCA83}
  9
$EXTNAMES
290
     1
  9
$PSVPSCALE
 40
0.0
  9
$OLESTARTUP
290
     0
  0
ENDSEC
  0
SECTION
  2
CLASSES
  0
CLASS
  1
ACDBDICTIONARYWDFLT
  2
AcDbDictionaryWithDefault
  3
ObjectDBX Classes
 90
        0
280
     0
281
     0
  0
CLASS
  1
ACDBPLACEHOLDER
  2
AcDbPlaceHolder
  3
ObjectDBX Classes
 90
        0
280
     0
281
     0
  0
CLASS
  1
LAYOUT
  2
AcDbLayout
  3
ObjectDBX Classes
 90
        0
280
     0
281
     0
  0
CLASS
  1
DICTIONARYVAR
  2
AcDbDictionaryVar
  3
ObjectDBX Classes
 90
        0
280
     0
281
     0
  0
CLASS
  1
TABLESTYLE
  2
AcDbTableStyle
  3
ObjectDBX Classes
 90
     4095
280
     0
281
     0
  0
CLASS
  1
SCALE
  2
AcDbScale
  3
ObjectDBX Classes
 90
     1153
280
     0
281
     0
  0
CLASS
  1
CELLSTYLEMAP
  2
AcDbCellStyleMap
  3
ObjectDBX Classes
 90
     1152
280
     0
281
     0
  0
CLASS
  1
MATERIAL
  2
AcDbMaterial
  3
ObjectDBX Classes
 90
     1153
280
     0
281
     0
  0
CLASS
  1
VISUALSTYLE
  2
AcDbVisualStyle
  3
ObjectDBX Classes
 90
     4095
280
     0
281
     0
  0
CLASS
  1
RASTERVARIABLES
  2
AcDbRasterVariables
  3
ISM
 90
        0
280
     0
281
     0
  0
ENDSEC
  0
SECTION
  2
TABLES
  0
TABLE
  2
VPORT
  5
8
330
0
100
AcDbSymbolTable
 70
     1
  0
VPORT
  5
97
330
8
100
AcDbSymbolTableRecord
100
AcDbViewportTableRecord
  2
*Active
 70
     0
 10
0.0
 20
0.0
 11
1.0
 21
1.0
 12
0.4750351576221258
 22
0.7877053607168396
 13
0.0
 23
0.0
 14
0.5
 24
0.5
 15
0.5
 25
0.5
 16
0.0
 26
0.0
 36
1.0
 17
0.0
 27
0.0
 37
0.0
 40
2.769232421019445
 41
1.326771653543307
 42
50.0
 43
0.0
 44
0.0
 50
0.0
 51
0.0
 71
    16
 72
  1000
 73
     1
 74
     1
 75
     0
 76
     0
 77
     0
 78
     0
281
     0
 65
     0
110
0.0
120
0.0
130
0.0
111
1.0
121
0.0
131
0.0
112
0.0
122
1.0
132
0.0
 79
     0
146
0.0
  0
ENDTAB
  0
TABLE
  2
LTYPE
  5
5
330
0
100
AcDbSymbolTable
 70
     3
  0
LTYPE
  5
14
330
5
100
AcDbSymbolTableRecord
100
AcDbLinetypeTableRecord
  2
ByBlock
 70
     0
  3

 72
    65
 73
     0
 40
0.0
  0
LTYPE
  5
15
330
5
100
AcDbSymbolTableRecord
100
AcDbLinetypeTableRecord
  2
ByLayer
 70
     0
  3

 72
    65
 73
     0
 40
0.0
  0
LTYPE
  5
16
330
5
100
AcDbSymbolTableRecord
100
AcDbLinetypeTableRecord
  2
Continuous
 70
     0
  3
Solid line
 72
    65
 73
     0
 40
0.0
  0
LTYPE
  5
10CA
330
5
100
AcDbSymbolTableRecord
100
AcDbLinetypeTableRecord
  2
CENTERX2
 70
     0
  3
Center (2x) ________  __  ________  __  _____
 72
    65
 73
     4
 40
2.032
 49
1.27
 74
     4
 75
     0
340
0
 46
1.0
 50
0.0
 44
0.0
 45
0.0
 49
-0.254
 74
     4
 75
     0
340
0
 46
1.0
 50
0.0
 44
0.0
 45
0.0
 49
0.254
 74
     4
 75
     0
340
0
 46
1.0
 50
0.0
 44
0.0
 45
0.0
 49
-0.254
 74
     4
 75
     0
340
0
 46
1.0
 50
0.0
 44
0.0
 45
0.0
  0
LTYPE
  5
113F
330
5
100
AcDbSymbolTableRecord
100
AcDbLinetypeTableRecord
  2
HIDDEN
 70
     0
  3
 Hidden _ _ _ _ _ _ _ _ _ _ _ _ _ _ _ _ _ _ _ _
 72
    65
 73
     2
 40
0.375
 49
0.25
 74
     0
 49
-0.125
 74
     0
  0
ENDTAB
  0
TABLE
  2
LAYER
  5
2
330
0
100
AcDbSymbolTable
 70
     5
  0
LAYER
  5
10
330
2
100
AcDbSymbolTableRecord
100
AcDbLayerTableRecord
  2
0
 70
     0
 62
     7
  6
Continuous
370
    -3
390
F
  0
LAYER
  5
C1
330
2
100
AcDbSymbolTableRecord
100
AcDbLayerTableRecord
  2
S&C_cotas
 70
     0
 62
   251
  6
Continuous
370
    -3
390
F
  0
LAYER
  5
CC
330
2
100
AcDbSymbolTableRecord
100
AcDbLayerTableRecord
  2
DEFPOINTS
 70
     0
 62
     7
  6
Continuous
290
     0
370
    -3
390
F
  0
LAYER
  5
100
330
2
100
AcDbSymbolTableRecord
100
AcDbLayerTableRecord
  2
S&C_vistas
 70
     0
 62
     1
  6
Continuous
370
    -3
390
F
  0
LAYER
  5
C12
330
2
100
AcDbSymbolTableRecord
100
AcDbLayerTableRecord
  2
BASIC
 70
     0
 62
   179
  6
Continuous
370
     0
390
F
  0
ENDTAB
  0
TABLE
  2
STYLE
  5
3
330
0
100
AcDbSymbolTable
 70
     4
  0
STYLE
  5
11
330
3
100
AcDbSymbolTableRecord
100
AcDbTextStyleTableRecord
  2
Standard
 70
     0
 40
0.0
 41
1.0
 50
0.0
 71
     0
 42
0.2
  3
txt
  4

  0
STYLE
  5
C2
330
3
100
AcDbSymbolTableRecord
100
AcDbTextStyleTableRecord
  2
ARIAL
 70
     0
 40
0.0
 41
1.0
 50
0.0
 71
     0
 42
15.0
  3
ARIAL.TTF
  4

1001
ACAD
1000
Arial
1071
       34
  0
STYLE
  5
B7F
330
3
100
AcDbSymbolTableRecord
100
AcDbTextStyleTableRecord
  2
SLDTEXTSTYLE0
 70
     0
 40
0.0
 41
0.605
 50
0.0
 71
     0
 42
0.2
  3
TXT
  4

  0
STYLE
  5
C13
330
3
100
AcDbSymbolTableRecord
100
AcDbTextStyleTableRecord
  2
SLDTEXTSTYLE3
 70
     0
 40
0.0
 41
0.605
 50
0.0
 71
     0
 42
0.2
  3
TXT
  4

  0
ENDTAB
  0
TABLE
  2
VIEW
  5
6
330
0
100
AcDbSymbolTable
 70
     0
  0
ENDTAB
  0
TABLE
  2
UCS
  5
7
330
0
100
AcDbSymbolTable
 70
     0
  0
ENDTAB
  0
TABLE
  2
APPID
  5
9
330
0
100
AcDbSymbolTable
 70
     3
  0
APPID
  5
12
330
9
100
AcDbSymbolTableRecord
100
AcDbRegAppTableRecord
  2
ACAD
 70
     0
  0
APPID
  5
10C8
330
9
100
AcDbSymbolTableRecord
100
AcDbRegAppTableRecord
  2
ACAD_DSTYLE_DIMJAG
 70
     0
  0
APPID
  5
10C9
330
9
100
AcDbSymbolTableRecord
100
AcDbRegAppTableRecord
  2
ACAD_DSTYLE_DIMTALN
 70
     0
  0
ENDTAB
  0
TABLE
  2
DIMSTYLE
  5
A
330
0
100
AcDbSymbolTable
 70
     4
100
AcDbDimStyleTable
  0
DIMSTYLE
105
27
330
A
100
AcDbSymbolTableRecord
100
AcDbDimStyleTableRecord
  2
Standard
 70
     0
178
     0
340
11
  0
DIMSTYLE
105
C5
330
A
100
AcDbSymbolTableRecord
100
AcDbDimStyleTableRecord
  2
S&C_cotas
 70
     0
 41
0.1
 42
0.02
 44
0.018
 73
     0
 74
     0
140
0.02
141
0.0
147
0.0
176
   256
177
   256
271
     0
178
   256
179
     2
271
     0
272
     0
281
     1
282
     1
340
C2
341
10CB
342
10CB
1001
ACAD_DSTYLE_DIMJAG
1070
   388
1040
1.5
1001
ACAD_DSTYLE_DIMTALN
1070
   392
1070
     0
  0
DIMSTYLE
105
5C6
330
A
100
AcDbSymbolTableRecord
100
AcDbDimStyleTableRecord
  2
Tarifa ACAD
 70
     0
 41
0.5
 42
1.0
 45
0.5
 73
     0
 74
     0
 75
     1
 76
     1
 77
     1
140
1.5
141
1.0
147
1.0
172
     1
178
     0
271
     0
272
     0
340
11
341
10CE
342
10CE
  0
DIMSTYLE
105
C14
330
A
100
AcDbSymbolTableRecord
100
AcDbDimStyleTableRecord
  2
SLDDIMSTYLE0
 70
     0
 41
0.1100666666666667
 44
0.0
 77
     1
 78
    12
140
0.3
144
2.0
147
0.075
173
     1
178
     0
271
     2
272
     2
284
    12
340
C13
341
10CE
343
10CE
344
10CE
  0
ENDTAB
  0
TABLE
  2
BLOCK_RECORD
  5
1
330
0
100
AcDbSymbolTable
 70
     3
  0
BLOCK_RECORD
  5
1F
330
1
100
AcDbSymbolTableRecord
100
AcDbBlockTableRecord
  2
*Model_Space
340
22
  0
BLOCK_RECORD
  5
73
330
1
100
AcDbSymbolTableRecord
100
AcDbBlockTableRecord
  2
*Paper_Space
340
74
  0
BLOCK_RECORD
  5
10CB
330
1
100
AcDbSymbolTableRecord
100
AcDbBlockTableRecord
  2
_NONE
340
0
  0
BLOCK_RECORD
  5
10CE
330
1
100
AcDbSymbolTableRecord
100
AcDbBlockTableRecord
  2
_DOT
340
0
  0
BLOCK_RECORD
  5
BE
330
1
100
AcDbSymbolTableRecord
100
AcDbBlockTableRecord
  2
*Paper_Space2
340
BF
  0
ENDTAB
  0
ENDSEC
  0
SECTION
  2
BLOCKS
  0
BLOCK
  5
20
330
1F
100
AcDbEntity
  8
0
100
AcDbBlockBegin
  2
*Model_Space
 70
     0
 10
0.0
 20
0.0
 30
0.0
  3
*Model_Space
  1

  0
ENDBLK
  5
21
330
1F
100
AcDbEntity
  8
0
100
AcDbBlockEnd
  0
BLOCK
  5
75
330
73
100
AcDbEntity
 67
     1
  8
0
100
AcDbBlockBegin
  2
*Paper_Space
 70
     0
 10
0.0
 20
0.0
 30
0.0
  3
*Paper_Space
  1

  0
ENDBLK
  5
76
330
73
100
AcDbEntity
 67
     1
  8
0
100
AcDbBlockEnd
  0
BLOCK
  5
10CC
330
10CB
100
AcDbEntity
  8
0
100
AcDbBlockBegin
  2
_NONE
 70
     0
 10
0.0
 20
0.0
 30
0.0
  3
_NONE
  1

  0
ENDBLK
  5
10CD
330
10CB
100
AcDbEntity
  8
0
100
AcDbBlockEnd
  0
BLOCK
  5
10CF
330
10CE
100
AcDbEntity
  8
0
100
AcDbBlockBegin
  2
_DOT
 70
     0
 10
0.0
 20
0.0
 30
0.0
  3
_DOT
  1

  0
LWPOLYLINE
  5
BCD
330
10CE
100
AcDbEntity
  8
0
  6
ByBlock
 62
     0
100
AcDbPolyline
 90
        2
 70
     1
 43
0.5
 10
-0.25
 20
0.0
 42
1.0
 10
0.25
 20
0.0
 42
1.0
  0
LINE
  5
BCE
330
10CE
100
AcDbEntity
  8
0
  6
ByBlock
 62
     0
370
    -2
100
AcDbLine
 10
-0.5
 20
0.0
 30
0.0
 11
-1.0
 21
0.0
 31
0.0
  0
ENDBLK
  5
10D0
330
10CE
100
AcDbEntity
  8
0
100
AcDbBlockEnd
  0
BLOCK
  5
10D6
330
BE
100
AcDbEntity
  8
0
100
AcDbBlockBegin
  2
*Paper_Space2
 70
     0
 10
0.0
 20
0.0
 30
0.0
  3
*Paper_Space2
  1

  0
ENDBLK
  5
10D7
330
BE
100
AcDbEntity
  8
0
100
AcDbBlockEnd
  0
ENDSEC
  0
SECTION
  2
ENTITIES
  0
ARC
  5
D48
330
1F
100
AcDbEntity
  8
0
  6
Continuous
 62
     7
100
AcDbCircle
 10
0.3996043093556239
 20
-0.9076283186246352
 30
0.0
 40
0.0069999186250004
100
AcDbArc
 50
158.2132107017354
 51
21.78678929826602
  0
ARC
  5
D49
330
1F
100
AcDbEntity
  8
0
  6
Continuous
 62
     7
100
AcDbCircle
 10
0.6788942552927395
 20
-0.4238839422183853
 30
0.0
 40
0.0069999186250001
100
AcDbArc
 50
278.2132107018447
 51
141.7867892983605
  0
ARC
  5
D4A
330
1F
100
AcDbEntity
  8
0
  6
Continuous
 62
     7
100
AcDbCircle
 10
0.1203143634185082
 20
-0.4238839422183853
 30
0.0
 40
0.006999918625
100
AcDbArc
 50
38.21321070183843
 51
261.7867892983663
  0
ARC
  5
D4B
330
1F
100
AcDbEntity
  8
0
  6
Continuous
 62
     7
100
AcDbCircle
 10
0.1153144215435091
 20
-0.4325440955807702
 30
0.0
 40
0.0279996745
100
AcDbArc
 50
265.376810422108
 51
331.7768981380488
  0
ARC
  5
D4C
330
1F
100
AcDbEntity
  8
0
  6
Continuous
 62
     7
100
AcDbCircle
 10
0.1153144215435091
 20
-0.4325440955807702
 30
0.0
 40
0.0279996744999997
100
AcDbArc
 50
151.7768981380409
 51
223.500855488488
  0
ARC
  5
D4D
330
1F
100
AcDbEntity
  8
0
  6
Continuous
 62
     7
100
AcDbCircle
 10
0.1253143052935144
 20
-0.4152237888559862
 30
0.0
 40
0.0199997674999998
100
AcDbArc
 50
86.1782418759252
 51
148.2231018619507
  0
ARC
  5
D4E
330
1F
100
AcDbEntity
  8
0
  6
Continuous
 62
     7
100
AcDbCircle
 10
0.1253143052935144
 20
-0.4152237888559862
 30
0.0
 40
0.0199997675
100
AcDbArc
 50
328.223101861953
 51
26.16763266520319
  0
ARC
  5
D4F
330
1F
100
AcDbEntity
  8
0
  6
Continuous
 62
     7
100
AcDbCircle
 10
0.3994700111229719
 20
-0.5850545305663568
 30
0.0
 40
0.3024964834375052
100
AcDbArc
 50
148.2231018619509
 51
148.7687562586154
  0
ARC
  5
D50
330
1F
100
AcDbEntity
  8
0
  6
Continuous
 62
     7
100
AcDbCircle
 10
0.3994700111229719
 20
-0.5850545305663568
 30
0.0
 40
0.3024964834375051
100
AcDbArc
 50
151.2312437413836
 51
151.7768981380468
  0
ARC
  5
D51
330
1F
100
AcDbEntity
  8
0
  6
Continuous
 62
     7
100
AcDbCircle
 10
0.1153144215435091
 20
-0.4325440955807702
 30
0.0
 40
0.0199997675000005
100
AcDbArc
 50
273.8323673347981
 51
331.776898138049
  0
ARC
  5
D52
330
1F
100
AcDbEntity
  8
0
  6
Continuous
 62
     7
100
AcDbCircle
 10
0.1153144215435091
 20
-0.4325440955807702
 30
0.0
 40
0.0199997674999998
100
AcDbArc
 50
151.7768981380449
 51
213.8217581240748
  0
ARC
  5
D53
330
1F
100
AcDbEntity
  8
0
  6
Continuous
 62
     7
100
AcDbCircle
 10
0.3994700111229719
 20
-0.5850545305663568
 30
0.0
 40
0.3424960184375038
100
AcDbArc
 50
148.2231018619524
 51
151.7768981380469
  0
ARC
  5
D54
330
1F
100
AcDbEntity
  8
0
  6
Continuous
 62
     7
100
AcDbCircle
 10
0.3994700111229719
 20
-0.5850545305663568
 30
0.0
 40
0.2944965764375053
100
AcDbArc
 50
148.2231018619508
 51
148.7353045479953
  0
ARC
  5
D55
330
1F
100
AcDbEntity
  8
0
  6
Continuous
 62
     7
100
AcDbCircle
 10
0.1253143052935144
 20
-0.4152237888559862
 30
0.0
 40
0.0279996744999999
100
AcDbArc
 50
76.49914451151288
 51
148.2231018619475
  0
ARC
  5
D56
330
1F
100
AcDbEntity
  8
0
  6
Continuous
 62
     7
100
AcDbCircle
 10
0.1253143052935144
 20
-0.4152237888559862
 30
0.0
 40
0.0279996745000015
100
AcDbArc
 50
328.2231018619525
 51
34.62318957789716
  0
ARC
  5
D57
330
1F
100
AcDbEntity
  8
0
  6
Continuous
 62
     7
100
AcDbCircle
 10
0.3994700111229719
 20
-0.5850545305663568
 30
0.0
 40
0.3504959254375033
100
AcDbArc
 50
148.2231018619524
 51
151.7768981380469
  0
ARC
  5
D58
330
1F
100
AcDbEntity
  8
0
  6
Continuous
 62
     7
100
AcDbCircle
 10
0.3994700111229719
 20
-0.5850545305663568
 30
0.0
 40
0.294496576437505
100
AcDbArc
 50
151.2646954520035
 51
151.7768981380469
  0
ARC
  5
D59
330
1F
100
AcDbEntity
  8
0
  6
Continuous
 62
     7
100
AcDbCircle
 10
0.3994700111229719
 20
-0.5850545305663568
 30
0.0
 40
0.2539970472500062
100
AcDbArc
 50
151.4663906585481
 51
176.8527669294239
  0
ARC
  5
D5A
330
1F
100
AcDbEntity
  8
0
  6
Continuous
 62
     7
100
AcDbCircle
 10
0.1448575747917644
 20
-0.5710546933163594
 30
0.0
 40
0.0009999883749997
100
AcDbArc
 50
270.0
 51
356.8527669290431
  0
LINE
  5
D5B
330
1F
100
AcDbEntity
  8
0
  6
Continuous
 62
     7
100
AcDbLine
 10
0.0873816940938497
 20
-0.5720546816913592
 30
0.0
 11
0.1448575747917644
 21
-0.5720546816913592
 31
0.0
  0
LINE
  5
D5C
330
1F
100
AcDbEntity
  8
0
  6
Continuous
 62
     7
100
AcDbLine
 10
0.0097259050064977
 20
-0.5720546816913592
 30
0.0
 11
0.0673654471530725
 21
-0.5720546816913592
 31
0.0
  0
ARC
  5
D5D
330
1F
100
AcDbEntity
  8
0
  6
Continuous
 62
     7
100
AcDbCircle
 10
0.0097259050064977
 20
-0.5710546933163594
 30
0.0
 40
0.0009999883750004
100
AcDbArc
 50
177.9427864365007
 51
270.000000000003
  0
ARC
  5
D5E
330
1F
100
AcDbEntity
  8
0
  6
Continuous
 62
     7
100
AcDbCircle
 10
0.3994700111229719
 20
-0.5850545305663568
 30
0.0
 40
0.3909954546250071
100
AcDbArc
 50
122.057213563471
 51
177.9427864365263
  0
ARC
  5
D5F
330
1F
100
AcDbEntity
  8
0
  6
Continuous
 62
     7
100
AcDbCircle
 10
0.1924737433573753
 20
-0.2545261523192333
 30
0.0
 40
0.0009999883750004
100
AcDbArc
 50
29.99999999994455
 51
122.0572135634521
  0
LINE
  5
D60
330
1F
100
AcDbEntity
  8
0
  6
Continuous
 62
     7
100
AcDbLine
 10
0.2221595297669055
 20
-0.3039434658931734
 30
0.0
 11
0.1933397586936181
 21
-0.2540261581317262
 31
0.0
  0
LINE
  5
D61
330
1F
100
AcDbEntity
  8
0
  6
Continuous
 62
     7
100
AcDbLine
 10
0.2609055935862514
 20
-0.3710536170215912
 30
0.0
 11
0.2321676532372976
 21
-0.3212780442323047
 31
0.0
  0
ARC
  5
D62
330
1F
100
AcDbEntity
  8
0
  6
Continuous
 62
     7
100
AcDbCircle
 10
0.2600395782500158
 20
-0.371553611209084
 30
0.0
 40
0.0009999883750004
100
AcDbArc
 50
303.1472330705832
 51
30.00000000005579
  0
ARC
  5
D63
330
1F
100
AcDbEntity
  8
0
  6
Continuous
 62
     7
100
AcDbCircle
 10
0.3994700111229719
 20
-0.5850545305663568
 30
0.0
 40
0.2539970472500066
100
AcDbArc
 50
123.1472330705772
 51
148.533609341451
  0
ARC
  5
D64
330
1F
100
AcDbEntity
  8
0
  6
Continuous
 62
     7
100
AcDbCircle
 10
0.3994700111229719
 20
-0.5850545305663568
 30
0.0
 40
0.2459971402500075
100
AcDbArc
 50
121.1646285608487
 51
148.4859109117924
  0
LINE
  5
D67
330
1F
100
AcDbEntity
  8
0
  6
Continuous
 62
     7
100
AcDbLine
 10
0.2721667731499409
 20
-0.3745587381790367
 30
0.0
 11
0.2389795261999055
 21
-0.3170767402982373
 31
0.0
  0
ARC
  5
D6B
330
1F
100
AcDbEntity
  8
0
  6
Continuous
 62
     7
100
AcDbCircle
 10
0.1253143052935073
 20
-0.7550403465182749
 30
0.0
 40
0.0279996744999999
100
AcDbArc
 50
325.3768104221062
 51
31.77689813804712
  0
ARC
  5
D6C
330
1F
100
AcDbEntity
  8
0
  6
Continuous
 62
     7
100
AcDbCircle
 10
0.1253143052935073
 20
-0.7550403465182749
 30
0.0
 40
0.0279996744999999
100
AcDbArc
 50
211.7768981380512
 51
283.5008554884879
  0
ARC
  5
D6D
330
1F
100
AcDbEntity
  8
0
  6
Continuous
 62
     7
100
AcDbCircle
 10
0.1153144215435091
 20
-0.7377200397934909
 30
0.0
 40
0.0199997675000003
100
AcDbArc
 50
146.1782418759271
 51
208.2231018619534
  0
ARC
  5
D6E
330
1F
100
AcDbEntity
  8
0
  6
Continuous
 62
     7
100
AcDbCircle
 10
0.1153144215435091
 20
-0.7377200397934909
 30
0.0
 40
0.0199997674999996
100
AcDbArc
 50
28.22310186196096
 51
86.16763266520563
  0
ARC
  5
D6F
330
1F
100
AcDbEntity
  8
0
  6
Continuous
 62
     7
100
AcDbCircle
 10
0.3994700111229719
 20
-0.5852096048079043
 30
0.0
 40
0.3024964834375058
100
AcDbArc
 50
208.223101861953
 51
211.7768981380492
  0
ARC
  5
D70
330
1F
100
AcDbEntity
  8
0
  6
Continuous
 62
     7
100
AcDbCircle
 10
0.1253143052935073
 20
-0.7550403465182749
 30
0.0
 40
0.0199997675000001
100
AcDbArc
 50
333.8323673347951
 51
31.77689813804716
  0
ARC
  5
D71
330
1F
100
AcDbEntity
  8
0
  6
Continuous
 62
     7
100
AcDbCircle
 10
0.1253143052935073
 20
-0.7550403465182749
 30
0.0
 40
0.0199997675
100
AcDbArc
 50
211.7768981380532
 51
273.8217581240742
  0
ARC
  5
D72
330
1F
100
AcDbEntity
  8
0
  6
Continuous
 62
     7
100
AcDbCircle
 10
0.3994700111229719
 20
-0.5852096048079043
 30
0.0
 40
0.3424960184375047
100
AcDbArc
 50
208.223101861953
 51
211.776898138049
  0
ARC
  5
D73
330
1F
100
AcDbEntity
  8
0
  6
Continuous
 62
     7
100
AcDbCircle
 10
0.3994700111229719
 20
-0.5852096048079043
 30
0.0
 40
0.294496576437505
100
AcDbArc
 50
208.2231018619532
 51
209.2217651434436
  0
ARC
  5
D74
330
1F
100
AcDbEntity
  8
0
  6
Continuous
 62
     7
100
AcDbCircle
 10
0.1153144215435091
 20
-0.7377200397934909
 30
0.0
 40
0.0279996744999998
100
AcDbArc
 50
136.499144511514
 51
208.2231018619551
  0
ARC
  5
D75
330
1F
100
AcDbEntity
  8
0
  6
Continuous
 62
     7
100
AcDbCircle
 10
0.1153144215435091
 20
-0.7377200397934909
 30
0.0
 40
0.0279996745000009
100
AcDbArc
 50
28.22310186195126
 51
94.6231895778937
  0
ARC
  5
D76
330
1F
100
AcDbEntity
  8
0
  6
Continuous
 62
     7
100
AcDbCircle
 10
0.3994700111229719
 20
-0.5852096048079043
 30
0.0
 40
0.3504959254375036
100
AcDbArc
 50
208.2231018619531
 51
211.776898138049
  0
ARC
  5
D77
330
1F
100
AcDbEntity
  8
0
  6
Continuous
 62
     7
100
AcDbCircle
 10
0.3994700111229719
 20
-0.5852096048079043
 30
0.0
 40
0.2944965764375049
100
AcDbArc
 50
210.7782348565571
 51
211.776898138049
  0
LINE
  5
D78
330
1F
100
AcDbEntity
  8
0
  6
Continuous
 62
     7
100
AcDbLine
 10
0.1474206189578169
 20
-0.7353491376834749
 30
0.0
 11
0.1463636317594776
 21
-0.735959389526972
 31
0.0
  0
LINE
  5
D79
330
1F
100
AcDbEntity
  8
0
  6
Continuous
 62
     7
100
AcDbLine
 10
0.1434206654578176
 20
-0.7284210149935613
 30
0.0
 11
0.1423636782594784
 21
-0.7290312668370584
 31
0.0
  0
LINE
  5
D7A
330
1F
100
AcDbEntity
  8
0
  6
Continuous
 62
     7
100
AcDbLine
 10
0.1463636317594776
 20
-0.735959389526972
 30
0.0
 11
0.1423636782594784
 21
-0.7290312668370584
 31
0.0
  0
LINE
  5
D7B
330
1F
100
AcDbEntity
  8
0
  6
Continuous
 62
     7
100
AcDbLine
 10
0.1699459502377891
 20
-0.7223441316054002
 30
0.0
 11
0.1474206189578169
 21
-0.7353491376834749
 31
0.0
  0
LINE
  5
D7C
330
1F
100
AcDbEntity
  8
0
  6
Continuous
 62
     7
100
AcDbLine
 10
0.1659459967377828
 20
-0.7154160089154866
 30
0.0
 11
0.1434206654578176
 21
-0.7284210149935613
 31
0.0
  0
LINE
  5
D7D
330
1F
100
AcDbEntity
  8
0
  6
Continuous
 62
     7
100
AcDbLine
 10
0.1746444693045319
 20
-0.7196314403574215
 30
0.0
 11
0.1815293702331502
 21
-0.7156564409529447
 31
0.0
  0
LINE
  5
D7E
330
1F
100
AcDbEntity
  8
0
  6
Continuous
 62
     7
100
AcDbLine
 10
0.1706445158045327
 20
-0.7127033176675079
 30
0.0
 11
0.1775294167331438
 21
-0.7087283182630311
 31
0.0
  0
ARC
  5
D7F
330
1F
100
AcDbEntity
  8
0
  6
Continuous
 62
     7
100
AcDbCircle
 10
0.3994700111229719
 20
-0.5852096048079043
 30
0.0
 40
0.253997047250006
100
AcDbArc
 50
210.9023330394931
 51
236.8527669294252
  0
ARC
  5
D80
330
1F
100
AcDbEntity
  8
0
  6
Continuous
 62
     7
100
AcDbCircle
 10
0.2600395782500229
 20
-0.7987105241651771
 30
0.0
 40
0.0009999883749995
100
AcDbArc
 50
330.0000000000053
 51
56.85276692939927
  0
LINE
  5
D81
330
1F
100
AcDbEntity
  8
0
  6
Continuous
 62
     7
100
AcDbLine
 10
0.2321676532372976
 20
-0.8489860911419564
 30
0.0
 11
0.2609055935862585
 21
-0.7992105183526699
 31
0.0
  0
LINE
  5
D82
330
1F
100
AcDbEntity
  8
0
  6
Continuous
 62
     7
100
AcDbLine
 10
0.1933397586936252
 20
-0.9162379772425349
 30
0.0
 11
0.2221595297669126
 21
-0.8663206694810877
 31
0.0
  0
ARC
  5
D83
330
1F
100
AcDbEntity
  8
0
  6
Continuous
 62
     7
100
AcDbCircle
 10
0.1924737433573895
 20
-0.9157379830550278
 30
0.0
 40
0.0009999883749998
100
AcDbArc
 50
237.9427864365318
 51
330.00000000001
  0
ARC
  5
D84
330
1F
100
AcDbEntity
  8
0
  6
Continuous
 62
     7
100
AcDbCircle
 10
0.3994700111229719
 20
-0.5852096048079043
 30
0.0
 40
0.3909954546250067
100
AcDbArc
 50
182.0572135634721
 51
237.9427864365317
  0
ARC
  5
D85
330
1F
100
AcDbEntity
  8
0
  6
Continuous
 62
     7
100
AcDbCircle
 10
0.0097259050064977
 20
-0.5992094420579159
 30
0.0
 40
0.000999988375
100
AcDbArc
 50
89.99999999996746
 51
182.0572135643928
  0
LINE
  5
D86
330
1F
100
AcDbEntity
  8
0
  6
Continuous
 62
     7
100
AcDbLine
 10
0.0673654471530725
 20
-0.5982094536829161
 30
0.0
 11
0.0097259050064977
 21
-0.5982094536829161
 31
0.0
  0
LINE
  5
D87
330
1F
100
AcDbEntity
  8
0
  6
Continuous
 62
     7
100
AcDbLine
 10
0.1448575747917644
 20
-0.5982094536829019
 30
0.0
 11
0.0873816940938497
 21
-0.5982094536829019
 31
0.0
  0
ARC
  5
D88
330
1F
100
AcDbEntity
  8
0
  6
Continuous
 62
     7
100
AcDbCircle
 10
0.1448575747917644
 20
-0.5992094420579017
 30
0.0
 40
0.0009999883750005
100
AcDbArc
 50
3.147233071106368
 51
90.00000000005235
  0
ARC
  5
D89
330
1F
100
AcDbEntity
  8
0
  6
Continuous
 62
     7
100
AcDbCircle
 10
0.3994700111229719
 20
-0.5852096048079043
 30
0.0
 40
0.2539970472500062
100
AcDbArc
 50
183.1472330705777
 51
209.0976669605101
  0
LINE
  5
D90
330
1F
100
AcDbEntity
  8
0
  6
Continuous
 62
     7
100
AcDbLine
 10
0.1746444693045319
 20
-0.7196314403574215
 30
0.0
 11
0.1699459502377891
 21
-0.7223441316054002
 31
0.0
  0
LINE
  5
D91
330
1F
100
AcDbEntity
  8
0
  6
Continuous
 62
     7
100
AcDbLine
 10
0.1706445158045327
 20
-0.7127033176675079
 30
0.0
 11
0.1659459967377828
 21
-0.7154160089154866
 31
0.0
  0
LINE
  5
D92
330
1F
100
AcDbEntity
  8
0
  6
Continuous
 62
     7
100
AcDbLine
 10
0.1659459967377828
 20
-0.7154160089154866
 30
0.0
 11
0.1699459502377891
 21
-0.7223441316054002
 31
0.0
  0
LINE
  5
D93
330
1F
100
AcDbEntity
  8
0
  6
Continuous
 62
     7
100
AcDbLine
 10
0.1746444693045319
 20
-0.7196314403574215
 30
0.0
 11
0.1706445158045327
 21
-0.7127033176675079
 31
0.0
  0
ARC
  5
D94
330
1F
100
AcDbEntity
  8
0
  6
Continuous
 62
     7
100
AcDbCircle
 10
0.3896044256056257
 20
-0.2626358167496259
 30
0.0
 40
0.0279996745000001
100
AcDbArc
 50
205.3768104221083
 51
271.7768981380484
  0
ARC
  5
D95
330
1F
100
AcDbEntity
  8
0
  6
Continuous
 62
     7
100
AcDbCircle
 10
0.3896044256056257
 20
-0.2626358167496259
 30
0.0
 40
0.0279996744999997
100
AcDbArc
 50
91.77689813804476
 51
163.5008554884867
  0
ARC
  5
D96
330
1F
100
AcDbEntity
  8
0
  6
Continuous
 62
     7
100
AcDbCircle
 10
0.4096041931056291
 20
-0.2626358167496259
 30
0.0
 40
0.0199997674999995
100
AcDbArc
 50
26.17824187592566
 51
88.22310186195205
  0
ARC
  5
D97
330
1F
100
AcDbEntity
  8
0
  6
Continuous
 62
     7
100
AcDbCircle
 10
0.4096041931056291
 20
-0.2626358167496259
 30
0.0
 40
0.0199997674999997
100
AcDbArc
 50
268.2231018619528
 51
326.167632665203
  0
ARC
  5
D98
330
1F
100
AcDbEntity
  8
0
  6
Continuous
 62
     7
100
AcDbCircle
 10
0.3996043093556239
 20
-0.5849769934455831
 30
0.0
 40
0.3024964834375052
100
AcDbArc
 50
88.22310186195158
 51
91.77689813804734
  0
ARC
  5
D99
330
1F
100
AcDbEntity
  8
0
  6
Continuous
 62
     7
100
AcDbCircle
 10
0.3896044256056257
 20
-0.2626358167496259
 30
0.0
 40
0.0199997675000005
100
AcDbArc
 50
213.8323673347999
 51
271.7768981380482
  0
ARC
  5
D9A
330
1F
100
AcDbEntity
  8
0
  6
Continuous
 62
     7
100
AcDbCircle
 10
0.3896044256056257
 20
-0.2626358167496259
 30
0.0
 40
0.0199997675
100
AcDbArc
 50
91.77689813804707
 51
153.8217581240728
  0
ARC
  5
D9B
330
1F
100
AcDbEntity
  8
0
  6
Continuous
 62
     7
100
AcDbCircle
 10
0.3996043093556239
 20
-0.5849769934455831
 30
0.0
 40
0.342496018437504
100
AcDbArc
 50
88.22310186195165
 51
91.7768981380474
  0
ARC
  5
D9C
330
1F
100
AcDbEntity
  8
0
  6
Continuous
 62
     7
100
AcDbCircle
 10
0.3996043093556239
 20
-0.5849769934455831
 30
0.0
 40
0.2944965764375045
100
AcDbArc
 50
88.22310186195165
 51
89.22176514344352
  0
ARC
  5
D9D
330
1F
100
AcDbEntity
  8
0
  6
Continuous
 62
     7
100
AcDbCircle
 10
0.4096041931056291
 20
-0.2626358167496259
 30
0.0
 40
0.0279996744999996
100
AcDbArc
 50
16.49914451151299
 51
88.22310186195199
  0
ARC
  5
D9E
330
1F
100
AcDbEntity
  8
0
  6
Continuous
 62
     7
100
AcDbCircle
 10
0.4096041931056291
 20
-0.2626358167496259
 30
0.0
 40
0.0279996745000009
100
AcDbArc
 50
268.2231018619518
 51
334.6231895778888
  0
ARC
  5
D9F
330
1F
100
AcDbEntity
  8
0
  6
Continuous
 62
     7
100
AcDbCircle
 10
0.3996043093556239
 20
-0.5849769934455831
 30
0.0
 40
0.3504959254375035
100
AcDbArc
 50
88.22310186195175
 51
91.77689813804722
  0
ARC
  5
DA0
330
1F
100
AcDbEntity
  8
0
  6
Continuous
 62
     7
100
AcDbCircle
 10
0.3996043093556239
 20
-0.5849769934455831
 30
0.0
 40
0.2944965764375048
100
AcDbArc
 50
90.77823485655604
 51
91.77689813804737
  0
LINE
  5
DA1
330
1F
100
AcDbEntity
  8
0
  6
Continuous
 62
     7
100
AcDbLine
 10
0.3956043558556246
 20
-0.2916260503843413
 30
0.0
 11
0.3956043558556246
 21
-0.2904055466973612
 31
0.0
  0
LINE
  5
DA2
330
1F
100
AcDbEntity
  8
0
  6
Continuous
 62
     7
100
AcDbLine
 10
0.4036042628556302
 20
-0.2916260503843413
 30
0.0
 11
0.4036042628556231
 21
-0.2904055466973612
 31
0.0
  0
LINE
  5
DA3
330
1F
100
AcDbEntity
  8
0
  6
Continuous
 62
     7
100
AcDbLine
 10
0.3956043558556246
 20
-0.2904055466973612
 30
0.0
 11
0.4036042628556231
 21
-0.2904055466973612
 31
0.0
  0
LINE
  5
DA4
330
1F
100
AcDbEntity
  8
0
  6
Continuous
 62
     7
100
AcDbLine
 10
0.3956043558556246
 20
-0.3176360625404906
 30
0.0
 11
0.3956043558556246
 21
-0.2916260503843413
 31
0.0
  0
LINE
  5
DA5
330
1F
100
AcDbEntity
  8
0
  6
Continuous
 62
     7
100
AcDbLine
 10
0.4036042628556231
 20
-0.3176360625404906
 30
0.0
 11
0.4036042628556302
 21
-0.2916260503843413
 31
0.0
  0
LINE
  5
DA6
330
1F
100
AcDbEntity
  8
0
  6
Continuous
 62
     7
100
AcDbLine
 10
0.3956043558556246
 20
-0.323061445036448
 30
0.0
 11
0.3956043558556246
 21
-0.3310114438454159
 31
0.0
  0
LINE
  5
DA7
330
1F
100
AcDbEntity
  8
0
  6
Continuous
 62
     7
100
AcDbLine
 10
0.4036042628556302
 20
-0.323061445036448
 30
0.0
 11
0.4036042628556302
 21
-0.3310114438454159
 31
0.0
  0
ARC
  5
DA8
330
1F
100
AcDbEntity
  8
0
  6
Continuous
 62
     7
100
AcDbCircle
 10
0.3996043093556239
 20
-0.5849769934455831
 30
0.0
 40
0.2539970472500057
100
AcDbArc
 50
90.90233303949108
 51
116.8527669294239
  0
ARC
  5
DA9
330
1F
100
AcDbEntity
  8
0
  6
Continuous
 62
     7
100
AcDbCircle
 10
0.2844223058973725
 20
-0.3574762368383129
 30
0.0
 40
0.0009999883749994
100
AcDbArc
 50
210.0000000000428
 51
296.8527669294253
  0
LINE
  5
DAA
330
1F
100
AcDbEntity
  8
0
  6
Continuous
 62
     7
100
AcDbLine
 10
0.2548183502121759
 20
-0.3082006582365333
 30
0.0
 11
0.2835562905611297
 21
-0.3579762310258057
 31
0.0
  0
LINE
  5
DAB
330
1F
100
AcDbEntity
  8
0
  6
Continuous
 62
     7
100
AcDbLine
 10
0.2159904556684964
 20
-0.2409487721359549
 30
0.0
 11
0.2448102267417838
 21
-0.2908660798973879
 31
0.0
  0
ARC
  5
DAC
330
1F
100
AcDbEntity
  8
0
  6
Continuous
 62
     7
100
AcDbCircle
 10
0.216856471004732
 20
-0.2404487779484621
 30
0.0
 40
0.0009999883749999
100
AcDbArc
 50
117.9427864364913
 51
210.0000000000506
  0
ARC
  5
DAD
330
1F
100
AcDbEntity
  8
0
  6
Continuous
 62
     7
100
AcDbCircle
 10
0.3996043093556239
 20
-0.5849769934455831
 30
0.0
 40
0.3909954546250071
100
AcDbArc
 50
62.05721356347062
 51
117.94278643653
  0
ARC
  5
DAE
330
1F
100
AcDbEntity
  8
0
  6
Continuous
 62
     7
100
AcDbCircle
 10
0.5823521477065086
 20
-0.2404487779484479
 30
0.0
 40
0.0009999883749996
100
AcDbArc
 50
329.9999999999361
 51
62.05721356349511
  0
LINE
  5
DAF
330
1F
100
AcDbEntity
  8
0
  6
Continuous
 62
     7
100
AcDbLine
 10
0.5543983919694568
 20
-0.2908660798973879
 30
0.0
 11
0.5832181630427513
 21
-0.2409487721359549
 31
0.0
  0
LINE
  5
DB0
330
1F
100
AcDbEntity
  8
0
  6
Continuous
 62
     7
100
AcDbLine
 10
0.515652328150118
 20
-0.3579762310258057
 30
0.0
 11
0.5443902684990718
 21
-0.3082006582365333
 31
0.0
  0
ARC
  5
DB1
330
1F
100
AcDbEntity
  8
0
  6
Continuous
 62
     7
100
AcDbCircle
 10
0.5147863128138752
 20
-0.3574762368383129
 30
0.0
 40
0.0009999883750005
100
AcDbArc
 50
243.1472330705785
 51
330.0000000000372
  0
ARC
  5
DB2
330
1F
100
AcDbEntity
  8
0
  6
Continuous
 62
     7
100
AcDbCircle
 10
0.3996043093556239
 20
-0.5849769934455831
 30
0.0
 40
0.2539970472500065
100
AcDbArc
 50
63.14723307057749
 51
89.09766696050812
  0
LINE
  5
DB9
330
1F
100
AcDbEntity
  8
0
  6
Continuous
 62
     7
100
AcDbLine
 10
0.3956043558556246
 20
-0.323061445036448
 30
0.0
 11
0.3956043558556246
 21
-0.3176360625404906
 31
0.0
  0
LINE
  5
DBA
330
1F
100
AcDbEntity
  8
0
  6
Continuous
 62
     7
100
AcDbLine
 10
0.4036042628556302
 20
-0.323061445036448
 30
0.0
 11
0.4036042628556231
 21
-0.3176360625404906
 31
0.0
  0
LINE
  5
DBB
330
1F
100
AcDbEntity
  8
0
  6
Continuous
 62
     7
100
AcDbLine
 10
0.4036042628556231
 20
-0.3176360625404906
 30
0.0
 11
0.3956043558556246
 21
-0.3176360625404906
 31
0.0
  0
LINE
  5
DBC
330
1F
100
AcDbEntity
  8
0
  6
Continuous
 62
     7
100
AcDbLine
 10
0.3956043558556246
 20
-0.323061445036448
 30
0.0
 11
0.4036042628556302
 21
-0.323061445036448
 31
0.0
  0
ARC
  5
DBD
330
1F
100
AcDbEntity
  8
0
  6
Continuous
 62
     7
100
AcDbCircle
 10
0.409604193105622
 20
-0.907628318624621
 30
0.0
 40
0.0279996745000001
100
AcDbArc
 50
25.3768104221085
 51
91.77689813804889
  0
ARC
  5
DBE
330
1F
100
AcDbEntity
  8
0
  6
Continuous
 62
     7
100
AcDbCircle
 10
0.409604193105622
 20
-0.907628318624621
 30
0.0
 40
0.0279996744999996
100
AcDbArc
 50
271.776898138046
 51
343.5008554884869
  0
ARC
  5
DBF
330
1F
100
AcDbEntity
  8
0
  6
Continuous
 62
     7
100
AcDbCircle
 10
0.3896044256056257
 20
-0.907628318624621
 30
0.0
 40
0.0199997674999995
100
AcDbArc
 50
206.1782418759293
 51
268.2231018619535
  0
ARC
  5
DC0
330
1F
100
AcDbEntity
  8
0
  6
Continuous
 62
     7
100
AcDbCircle
 10
0.3896044256056257
 20
-0.907628318624621
 30
0.0
 40
0.0199997674999998
100
AcDbArc
 50
88.22310186195287
 51
146.1676326652044
  0
ARC
  5
DC1
330
1F
100
AcDbEntity
  8
0
  6
Continuous
 62
     7
100
AcDbCircle
 10
0.3996043093556239
 20
-0.585287141928678
 30
0.0
 40
0.3024964834375054
100
AcDbArc
 50
268.2231018619527
 51
268.7687562586157
  0
ARC
  5
DC2
330
1F
100
AcDbEntity
  8
0
  6
Continuous
 62
     7
100
AcDbCircle
 10
0.3996043093556239
 20
-0.585287141928678
 30
0.0
 40
0.3024964834375053
100
AcDbArc
 50
271.2312437413852
 51
271.7768981380486
  0
ARC
  5
DC3
330
1F
100
AcDbEntity
  8
0
  6
Continuous
 62
     7
100
AcDbCircle
 10
0.409604193105622
 20
-0.907628318624621
 30
0.0
 40
0.0199997675000002
100
AcDbArc
 50
33.83236733480113
 51
91.77689813804948
  0
ARC
  5
DC4
330
1F
100
AcDbEntity
  8
0
  6
Continuous
 62
     7
100
AcDbCircle
 10
0.409604193105622
 20
-0.907628318624621
 30
0.0
 40
0.0199997674999996
100
AcDbArc
 50
271.7768981380488
 51
333.8217581240735
  0
ARC
  5
DC5
330
1F
100
AcDbEntity
  8
0
  6
Continuous
 62
     7
100
AcDbCircle
 10
0.3996043093556239
 20
-0.585287141928678
 30
0.0
 40
0.3424960184375042
100
AcDbArc
 50
268.2231018619527
 51
271.7768981380486
  0
ARC
  5
DC6
330
1F
100
AcDbEntity
  8
0
  6
Continuous
 62
     7
100
AcDbCircle
 10
0.3996043093556239
 20
-0.585287141928678
 30
0.0
 40
0.2944965764375055
100
AcDbArc
 50
268.2231018619531
 51
268.735304547996
  0
ARC
  5
DC7
330
1F
100
AcDbEntity
  8
0
  6
Continuous
 62
     7
100
AcDbCircle
 10
0.3896044256056257
 20
-0.907628318624621
 30
0.0
 40
0.0279996744999999
100
AcDbArc
 50
196.4991445115147
 51
268.223101861954
  0
ARC
  5
DC8
330
1F
100
AcDbEntity
  8
0
  6
Continuous
 62
     7
100
AcDbCircle
 10
0.3896044256056257
 20
-0.907628318624621
 30
0.0
 40
0.027999674500001
100
AcDbArc
 50
88.22310186195061
 51
154.6231895778907
  0
ARC
  5
DC9
330
1F
100
AcDbEntity
  8
0
  6
Continuous
 62
     7
100
AcDbCircle
 10
0.3996043093556239
 20
-0.585287141928678
 30
0.0
 40
0.3504959254375036
100
AcDbArc
 50
268.2231018619531
 51
271.7768981380485
  0
ARC
  5
DCA
330
1F
100
AcDbEntity
  8
0
  6
Continuous
 62
     7
100
AcDbCircle
 10
0.3996043093556239
 20
-0.585287141928678
 30
0.0
 40
0.2944965764375055
100
AcDbArc
 50
271.2646954520048
 51
271.7768981380485
  0
ARC
  5
DCB
330
1F
100
AcDbEntity
  8
0
  6
Continuous
 62
     7
100
AcDbCircle
 10
0.3996043093556239
 20
-0.585287141928678
 30
0.0
 40
0.2539970472500058
100
AcDbArc
 50
271.4663906585486
 51
296.852766929425
  0
ARC
  5
DCC
330
1F
100
AcDbEntity
  8
0
  6
Continuous
 62
     7
100
AcDbCircle
 10
0.5147863128138823
 20
-0.8127878985359482
 30
0.0
 40
0.0009999883749996
100
AcDbArc
 50
30.00000000000181
 51
116.8527669294022
  0
LINE
  5
DCD
330
1F
100
AcDbEntity
  8
0
  6
Continuous
 62
     7
100
AcDbLine
 10
0.5443902684990789
 20
-0.8620634771377278
 30
0.0
 11
0.515652328150118
 21
-0.8122879043484412
 31
0.0
  0
LINE
  5
DCE
330
1F
100
AcDbEntity
  8
0
  6
Continuous
 62
     7
100
AcDbLine
 10
0.5832181630427513
 20
-0.9293153632383062
 30
0.0
 11
0.5543983919694639
 21
-0.879398055476859
 31
0.0
  0
ARC
  5
DCF
330
1F
100
AcDbEntity
  8
0
  6
Continuous
 62
     7
100
AcDbCircle
 10
0.5823521477065157
 20
-0.929815357425799
 30
0.0
 40
0.000999988375
100
AcDbArc
 50
297.9427864364857
 51
30.00000000004409
  0
ARC
  5
DD0
330
1F
100
AcDbEntity
  8
0
  6
Continuous
 62
     7
100
AcDbCircle
 10
0.3996043093556239
 20
-0.585287141928678
 30
0.0
 40
0.3909954546250072
100
AcDbArc
 50
242.0572135634724
 51
297.9427864365309
  0
ARC
  5
DD1
330
1F
100
AcDbEntity
  8
0
  6
Continuous
 62
     7
100
AcDbCircle
 10
0.2168564710047391
 20
-0.9298153574258132
 30
0.0
 40
0.000999988375
100
AcDbArc
 50
149.9999999999559
 51
242.0572135634648
  0
LINE
  5
DD2
330
1F
100
AcDbEntity
  8
0
  6
Continuous
 62
     7
100
AcDbLine
 10
0.2448102267417909
 20
-0.8793980554768732
 30
0.0
 11
0.2159904556685035
 21
-0.9293153632383062
 31
0.0
  0
LINE
  5
DD3
330
1F
100
AcDbEntity
  8
0
  6
Continuous
 62
     7
100
AcDbLine
 10
0.2835562905611368
 20
-0.8122879043484554
 30
0.0
 11
0.2548183502121759
 21
-0.8620634771377278
 31
0.0
  0
ARC
  5
DD4
330
1F
100
AcDbEntity
  8
0
  6
Continuous
 62
     7
100
AcDbCircle
 10
0.2844223058973725
 20
-0.8127878985359482
 30
0.0
 40
0.000999988375001
100
AcDbArc
 50
63.14723307062964
 51
150.0000000000534
  0
ARC
  5
DD5
330
1F
100
AcDbEntity
  8
0
  6
Continuous
 62
     7
100
AcDbCircle
 10
0.3996043093556239
 20
-0.585287141928678
 30
0.0
 40
0.2539970472500067
100
AcDbArc
 50
243.1472330705783
 51
268.5336093414519
  0
ARC
  5
DDD
330
1F
100
AcDbEntity
  8
0
  6
Continuous
 62
     7
100
AcDbCircle
 10
0.6738943134177404
 20
-0.4152237888559862
 30
0.0
 40
0.0279996745000004
100
AcDbArc
 50
145.3768104221069
 51
211.7768981380494
  0
ARC
  5
DDE
330
1F
100
AcDbEntity
  8
0
  6
Continuous
 62
     7
100
AcDbCircle
 10
0.6738943134177404
 20
-0.4152237888559862
 30
0.0
 40
0.0279996745
100
AcDbArc
 50
31.77689813804934
 51
103.5008554884866
  0
ARC
  5
DDF
330
1F
100
AcDbEntity
  8
0
  6
Continuous
 62
     7
100
AcDbCircle
 10
0.6838941971677457
 20
-0.4325440955807702
 30
0.0
 40
0.0199997674999998
100
AcDbArc
 50
326.1782418759266
 51
28.2231018619548
  0
ARC
  5
DE0
330
1F
100
AcDbEntity
  8
0
  6
Continuous
 62
     7
100
AcDbCircle
 10
0.6838941971677457
 20
-0.4325440955807702
 30
0.0
 40
0.0199997675
100
AcDbArc
 50
208.2231018619566
 51
266.1676326652032
  0
ARC
  5
DE1
330
1F
100
AcDbEntity
  8
0
  6
Continuous
 62
     7
100
AcDbCircle
 10
0.3997386075882758
 20
-0.5850545305663568
 30
0.0
 40
0.302496483437505
100
AcDbArc
 50
28.22310186195136
 51
28.76875625861461
  0
ARC
  5
DE2
330
1F
100
AcDbEntity
  8
0
  6
Continuous
 62
     7
100
AcDbCircle
 10
0.3997386075882758
 20
-0.5850545305663568
 30
0.0
 40
0.3024964834375051
100
AcDbArc
 50
31.23124374138427
 51
31.7768981380474
  0
ARC
  5
DE3
330
1F
100
AcDbEntity
  8
0
  6
Continuous
 62
     7
100
AcDbCircle
 10
0.6738943134177404
 20
-0.4152237888559862
 30
0.0
 40
0.0199997675000003
100
AcDbArc
 50
153.8323673347972
 51
211.7768981380496
  0
ARC
  5
DE4
330
1F
100
AcDbEntity
  8
0
  6
Continuous
 62
     7
100
AcDbCircle
 10
0.6738943134177404
 20
-0.4152237888559862
 30
0.0
 40
0.0199997675000002
100
AcDbArc
 50
31.77689813805426
 51
93.82175812407351
  0
ARC
  5
DE5
330
1F
100
AcDbEntity
  8
0
  6
Continuous
 62
     7
100
AcDbCircle
 10
0.3997386075882758
 20
-0.5850545305663568
 30
0.0
 40
0.3424960184375039
100
AcDbArc
 50
28.2231018619514
 51
31.77689813804736
  0
ARC
  5
DE6
330
1F
100
AcDbEntity
  8
0
  6
Continuous
 62
     7
100
AcDbCircle
 10
0.3997386075882758
 20
-0.5850545305663568
 30
0.0
 40
0.2944965764375057
100
AcDbArc
 50
28.22310186195298
 51
28.73530454799466
  0
ARC
  5
DE7
330
1F
100
AcDbEntity
  8
0
  6
Continuous
 62
     7
100
AcDbCircle
 10
0.6838941971677457
 20
-0.4325440955807702
 30
0.0
 40
0.0279996744999997
100
AcDbArc
 50
316.4991445115125
 51
28.22310186195714
  0
ARC
  5
DE8
330
1F
100
AcDbEntity
  8
0
  6
Continuous
 62
     7
100
AcDbCircle
 10
0.6838941971677457
 20
-0.4325440955807702
 30
0.0
 40
0.0279996745000009
100
AcDbArc
 50
208.2231018619515
 51
274.6231895778943
  0
ARC
  5
DE9
330
1F
100
AcDbEntity
  8
0
  6
Continuous
 62
     7
100
AcDbCircle
 10
0.3997386075882758
 20
-0.5850545305663568
 30
0.0
 40
0.3504959254375034
100
AcDbArc
 50
28.22310186195146
 51
31.77689813804731
  0
ARC
  5
DEA
330
1F
100
AcDbEntity
  8
0
  6
Continuous
 62
     7
100
AcDbCircle
 10
0.3997386075882758
 20
-0.5850545305663568
 30
0.0
 40
0.2944965764375058
100
AcDbArc
 50
31.26469545200295
 51
31.77689813804742
  0
ARC
  5
DEB
330
1F
100
AcDbEntity
  8
0
  6
Continuous
 62
     7
100
AcDbCircle
 10
0.3997386075882758
 20
-0.5850545305663568
 30
0.0
 40
0.253997047250006
100
AcDbArc
 50
31.46639065854728
 51
56.85276692942354
  0
ARC
  5
DEC
330
1F
100
AcDbEntity
  8
0
  6
Continuous
 62
     7
100
AcDbCircle
 10
0.5391690404612319
 20
-0.371553611209084
 30
0.0
 40
0.0009999883749999
100
AcDbArc
 50
150.0000000000321
 51
236.8527669294005
  0
LINE
  5
DED
330
1F
100
AcDbEntity
  8
0
  6
Continuous
 62
     7
100
AcDbLine
 10
0.5670409654739501
 20
-0.3212780442323047
 30
0.0
 11
0.5383030251249892
 21
-0.3710536170215912
 31
0.0
  0
LINE
  5
DEE
330
1F
100
AcDbEntity
  8
0
  6
Continuous
 62
     7
100
AcDbLine
 10
0.6058688600176225
 20
-0.2540261581317262
 30
0.0
 11
0.5770490889443352
 21
-0.3039434658931734
 31
0.0
  0
ARC
  5
DEF
330
1F
100
AcDbEntity
  8
0
  6
Continuous
 62
     7
100
AcDbCircle
 10
0.6067348753538653
 20
-0.2545261523192333
 30
0.0
 40
0.000999988375
100
AcDbArc
 50
57.94278643649768
 51
149.9999999999403
  0
ARC
  5
DF0
330
1F
100
AcDbEntity
  8
0
  6
Continuous
 62
     7
100
AcDbCircle
 10
0.3997386075882758
 20
-0.5850545305663568
 30
0.0
 40
0.3909954546250063
100
AcDbArc
 50
2.057213563470529
 51
57.94278643652985
  0
ARC
  5
DF1
330
1F
100
AcDbEntity
  8
0
  6
Continuous
 62
     7
100
AcDbCircle
 10
0.78948271370475
 20
-0.5710546933163452
 30
0.0
 40
0.0009999883750001
100
AcDbArc
 50
269.9999999999349
 51
2.057213565055178
  0
LINE
  5
DF2
330
1F
100
AcDbEntity
  8
0
  6
Continuous
 62
     7
100
AcDbLine
 10
0.7318431715581752
 20
-0.5720546816913592
 30
0.0
 11
0.78948271370475
 21
-0.572054681691345
 31
0.0
  0
LINE
  5
DF3
330
1F
100
AcDbEntity
  8
0
  6
Continuous
 62
     7
100
AcDbLine
 10
0.6543510439194833
 20
-0.5720546816913592
 30
0.0
 11
0.711826924617398
 21
-0.5720546816913592
 31
0.0
  0
ARC
  5
DF4
330
1F
100
AcDbEntity
  8
0
  6
Continuous
 62
     7
100
AcDbCircle
 10
0.6543510439194833
 20
-0.5710546933163594
 30
0.0
 40
0.0009999883750005
100
AcDbArc
 50
183.1472330711064
 51
270.0000000000354
  0
ARC
  5
DF5
330
1F
100
AcDbEntity
  8
0
  6
Continuous
 62
     7
100
AcDbCircle
 10
0.3997386075882758
 20
-0.5850545305663568
 30
0.0
 40
0.2539970472500062
100
AcDbArc
 50
3.147233070577709
 51
28.5336093414516
  0
LINE
  5
DFC
330
1F
100
AcDbEntity
  8
0
  6
Continuous
 62
     7
100
AcDbLine
 10
0.6035507004886753
 20
-0.2420415142159167
 30
0.0
 11
0.5702302170864826
 21
-0.2997542844012779
 31
0.0
  0
ARC
  5
DFD
330
1F
100
AcDbEntity
  8
0
  6
Continuous
 62
     7
100
AcDbCircle
 10
0.6838941971677386
 20
-0.7377200397934909
 30
0.0
 40
0.0279996745000004
100
AcDbArc
 50
85.37681042210815
 51
151.7768981380491
  0
ARC
  5
DFE
330
1F
100
AcDbEntity
  8
0
  6
Continuous
 62
     7
100
AcDbCircle
 10
0.6838941971677386
 20
-0.7377200397934909
 30
0.0
 40
0.0279996745
100
AcDbArc
 50
331.7768981380396
 51
43.50085548848773
  0
ARC
  5
DFF
330
1F
100
AcDbEntity
  8
0
  6
Continuous
 62
     7
100
AcDbCircle
 10
0.6738943134177404
 20
-0.7550403465182749
 30
0.0
 40
0.0199997674999998
100
AcDbArc
 50
266.17824187593
 51
328.2231018619545
  0
ARC
  5
E00
330
1F
100
AcDbEntity
  8
0
  6
Continuous
 62
     7
100
AcDbCircle
 10
0.6738943134177404
 20
-0.7550403465182749
 30
0.0
 40
0.0199997674999994
100
AcDbArc
 50
148.2231018619525
 51
206.1676326652065
  0
ARC
  5
E01
330
1F
100
AcDbEntity
  8
0
  6
Continuous
 62
     7
100
AcDbCircle
 10
0.3997386075882758
 20
-0.5852096048079043
 30
0.0
 40
0.3024964834375047
100
AcDbArc
 50
328.2231018619526
 51
331.7768981380487
  0
ARC
  5
E02
330
1F
100
AcDbEntity
  8
0
  6
Continuous
 62
     7
100
AcDbCircle
 10
0.6838941971677386
 20
-0.7377200397934909
 30
0.0
 40
0.0199997675000004
100
AcDbArc
 50
93.8323673347981
 51
151.776898138048
  0
ARC
  5
E03
330
1F
100
AcDbEntity
  8
0
  6
Continuous
 62
     7
100
AcDbCircle
 10
0.6838941971677386
 20
-0.7377200397934909
 30
0.0
 40
0.0199997674999992
100
AcDbArc
 50
331.7768981380444
 51
33.82175812407442
  0
ARC
  5
E04
330
1F
100
AcDbEntity
  8
0
  6
Continuous
 62
     7
100
AcDbCircle
 10
0.3997386075882758
 20
-0.5852096048079043
 30
0.0
 40
0.342496018437504
100
AcDbArc
 50
328.2231018619527
 51
331.7768981380488
  0
ARC
  5
E05
330
1F
100
AcDbEntity
  8
0
  6
Continuous
 62
     7
100
AcDbCircle
 10
0.3997386075882758
 20
-0.5852096048079043
 30
0.0
 40
0.2944965764375041
100
AcDbArc
 50
328.2231018619526
 51
329.2217651434448
  0
ARC
  5
E06
330
1F
100
AcDbEntity
  8
0
  6
Continuous
 62
     7
100
AcDbCircle
 10
0.6738943134177404
 20
-0.7550403465182749
 30
0.0
 40
0.0279996744999998
100
AcDbArc
 50
256.4991445115152
 51
328.2231018619524
  0
ARC
  5
E07
330
1F
100
AcDbEntity
  8
0
  6
Continuous
 62
     7
100
AcDbCircle
 10
0.6738943134177404
 20
-0.7550403465182749
 30
0.0
 40
0.0279996745000012
100
AcDbArc
 50
148.2231018619511
 51
214.6231895778976
  0
ARC
  5
E08
330
1F
100
AcDbEntity
  8
0
  6
Continuous
 62
     7
100
AcDbCircle
 10
0.3997386075882758
 20
-0.5852096048079043
 30
0.0
 40
0.3504959254375028
100
AcDbArc
 50
328.2231018619526
 51
331.7768981380487
  0
ARC
  5
E09
330
1F
100
AcDbEntity
  8
0
  6
Continuous
 62
     7
100
AcDbCircle
 10
0.3997386075882758
 20
-0.5852096048079043
 30
0.0
 40
0.2944965764375042
100
AcDbArc
 50
330.7782348565581
 51
331.7768981380488
  0
LINE
  5
E0A
330
1F
100
AcDbEntity
  8
0
  6
Continuous
 62
     7
100
AcDbLine
 10
0.6557879532534301
 20
-0.7284210149935613
 30
0.0
 11
0.6568449404517693
 21
-0.7290312668370584
 31
0.0
  0
LINE
  5
E0B
330
1F
100
AcDbEntity
  8
0
  6
Continuous
 62
     7
100
AcDbLine
 10
0.6517879997534308
 20
-0.7353491376834749
 30
0.0
 11
0.6528449869517701
 21
-0.735959389526972
 31
0.0
  0
LINE
  5
E0C
330
1F
100
AcDbEntity
  8
0
  6
Continuous
 62
     7
100
AcDbLine
 10
0.6568449404517693
 20
-0.7290312668370584
 30
0.0
 11
0.6528449869517701
 21
-0.735959389526972
 31
0.0
  0
LINE
  5
E0D
330
1F
100
AcDbEntity
  8
0
  6
Continuous
 62
     7
100
AcDbLine
 10
0.633262621973465
 20
-0.7154160089154866
 30
0.0
 11
0.6557879532534301
 21
-0.7284210149935613
 31
0.0
  0
LINE
  5
E0E
330
1F
100
AcDbEntity
  8
0
  6
Continuous
 62
     7
100
AcDbLine
 10
0.6292626684734586
 20
-0.7223441316054002
 30
0.0
 11
0.6517879997534308
 21
-0.7353491376834749
 31
0.0
  0
LINE
  5
E0F
330
1F
100
AcDbEntity
  8
0
  6
Continuous
 62
     7
100
AcDbLine
 10
0.628564102906715
 20
-0.7127033176675079
 30
0.0
 11
0.6216792019781039
 21
-0.7087283182630311
 31
0.0
  0
LINE
  5
E10
330
1F
100
AcDbEntity
  8
0
  6
Continuous
 62
     7
100
AcDbLine
 10
0.6245641494067158
 20
-0.7196314403574215
 30
0.0
 11
0.6176792484780975
 21
-0.7156564409529447
 31
0.0
  0
ARC
  5
E11
330
1F
100
AcDbEntity
  8
0
  6
Continuous
 62
     7
100
AcDbCircle
 10
0.3997386075882758
 20
-0.5852096048079043
 30
0.0
 40
0.253997047250006
100
AcDbArc
 50
330.9023330394917
 51
356.8527669294257
  0
ARC
  5
E12
330
1F
100
AcDbEntity
  8
0
  6
Continuous
 62
     7
100
AcDbCircle
 10
0.6543510439194833
 20
-0.5992094420579017
 30
0.0
 40
0.0009999883749997
100
AcDbArc
 50
90.0
 51
176.8527669290439
  0
LINE
  5
E13
330
1F
100
AcDbEntity
  8
0
  6
Continuous
 62
     7
100
AcDbLine
 10
0.711826924617398
 20
-0.5982094536829019
 30
0.0
 11
0.6543510439194833
 21
-0.5982094536829019
 31
0.0
  0
LINE
  5
E14
330
1F
100
AcDbEntity
  8
0
  6
Continuous
 62
     7
100
AcDbLine
 10
0.78948271370475
 20
-0.5982094536829019
 30
0.0
 11
0.7318431715581752
 21
-0.5982094536829019
 31
0.0
  0
ARC
  5
E15
330
1F
100
AcDbEntity
  8
0
  6
Continuous
 62
     7
100
AcDbCircle
 10
0.78948271370475
 20
-0.5992094420579017
 30
0.0
 40
0.0009999883750004
100
AcDbArc
 50
357.9427864364926
 51
90.00000000000055
  0
ARC
  5
E16
330
1F
100
AcDbEntity
  8
0
  6
Continuous
 62
     7
100
AcDbCircle
 10
0.3997386075882758
 20
-0.5852096048079043
 30
0.0
 40
0.3909954546250072
100
AcDbArc
 50
302.0572135634717
 51
357.9427864365277
  0
ARC
  5
E17
330
1F
100
AcDbEntity
  8
0
  6
Continuous
 62
     7
100
AcDbCircle
 10
0.6067348753538724
 20
-0.9157379830550278
 30
0.0
 40
0.0009999883750002
100
AcDbArc
 50
209.9999999999339
 51
302.057213563433
  0
LINE
  5
E18
330
1F
100
AcDbEntity
  8
0
  6
Continuous
 62
     7
100
AcDbLine
 10
0.5770490889443423
 20
-0.8663206694810877
 30
0.0
 11
0.6058688600176367
 21
-0.9162379772425207
 31
0.0
  0
LINE
  5
E19
330
1F
100
AcDbEntity
  8
0
  6
Continuous
 62
     7
100
AcDbLine
 10
0.5383030251249963
 20
-0.7992105183526699
 30
0.0
 11
0.5670409654739572
 21
-0.8489860911419422
 31
0.0
  0
ARC
  5
E1A
330
1F
100
AcDbEntity
  8
0
  6
Continuous
 62
     7
100
AcDbCircle
 10
0.5391690404612319
 20
-0.7987105241651771
 30
0.0
 40
0.0009999883750001
100
AcDbArc
 50
123.1472330705582
 51
210.0000000000513
  0
ARC
  5
E1B
330
1F
100
AcDbEntity
  8
0
  6
Continuous
 62
     7
100
AcDbCircle
 10
0.3997386075882758
 20
-0.5852096048079043
 30
0.0
 40
0.2539970472500067
100
AcDbArc
 50
303.147233070579
 51
329.0976669605086
  0
LINE
  5
E22
330
1F
100
AcDbEntity
  8
0
  6
Continuous
 62
     7
100
AcDbLine
 10
0.628564102906715
 20
-0.7127033176675079
 30
0.0
 11
0.633262621973465
 21
-0.7154160089154866
 31
0.0
  0
LINE
  5
E23
330
1F
100
AcDbEntity
  8
0
  6
Continuous
 62
     7
100
AcDbLine
 10
0.6245641494067158
 20
-0.7196314403574215
 30
0.0
 11
0.6292626684734586
 21
-0.7223441316054002
 31
0.0
  0
LINE
  5
E24
330
1F
100
AcDbEntity
  8
0
  6
Continuous
 62
     7
100
AcDbLine
 10
0.6292626684734586
 20
-0.7223441316054002
 30
0.0
 11
0.633262621973465
 21
-0.7154160089154866
 31
0.0
  0
LINE
  5
E25
330
1F
100
AcDbEntity
  8
0
  6
Continuous
 62
     7
100
AcDbLine
 10
0.628564102906715
 20
-0.7127033176675079
 30
0.0
 11
0.6245641494067158
 21
-0.7196314403574215
 31
0.0
  0
ARC
  5
E2C
330
1F
100
AcDbEntity
  8
0
  6
Continuous
 62
     7
100
AcDbCircle
 10
0.3996043093556239
 20
-0.5849769934455831
 30
0.0
 40
0.2454971460625227
100
AcDbArc
 50
61.05028695705106
 51
118.9497130429506
  0
LINE
  5
E2D
330
1F
100
AcDbEntity
  8
0
  6
Continuous
 62
     7
100
AcDbLine
 10
0.5618724032288398
 20
-0.2949205150347931
 30
0.0
 11
0.5954422459040174
 21
-0.2367758419192863
 31
0.0
  0
LINE
  5
E2E
330
1F
100
AcDbEntity
  8
0
  6
Continuous
 62
     7
100
AcDbLine
 10
0.5184351906998756
 20
-0.3701559740741269
 30
0.0
 11
0.5518715110320684
 21
-0.3122425684406276
 31
0.0
  0
ARC
  5
E2F
330
1F
100
AcDbEntity
  8
0
  6
Continuous
 62
     7
100
AcDbCircle
 10
0.3996043093556239
 20
-0.5849769934455831
 30
0.0
 40
0.3994953558125323
100
AcDbArc
 50
60.64539789828819
 51
119.3546021017139
  0
LINE
  5
E30
330
1F
100
AcDbEntity
  8
0
  6
Continuous
 62
     7
100
AcDbLine
 10
0.2473371076791722
 20
-0.3122425684406276
 30
0.0
 11
0.280773428011365
 21
-0.3701559740741269
 31
0.0
  0
LINE
  5
E31
330
1F
100
AcDbEntity
  8
0
  6
Continuous
 62
     7
100
AcDbLine
 10
0.2037663728072161
 20
-0.2367758419192863
 30
0.0
 11
0.2373362154824008
 21
-0.2949205150347931
 31
0.0
  0
ARC
  5
E38
330
1F
100
AcDbEntity
  8
0
  6
Continuous
 62
     7
100
AcDbCircle
 10
0.3994700111229719
 20
-0.5852096048079043
 30
0.0
 40
0.2454971460625231
100
AcDbArc
 50
181.0502869570676
 51
238.9497130429519
  0
LINE
  5
E39
330
1F
100
AcDbEntity
  8
0
  6
Continuous
 62
     7
100
AcDbLine
 10
0.0671396853503694
 20
-0.5897095524954106
 30
0.0
 11
0.0
 21
-0.5897095524954248
 31
0.0
  0
LINE
  5
E3A
330
1F
100
AcDbEntity
  8
0
  6
Continuous
 62
     7
100
AcDbLine
 10
0.1540141104082977
 20
-0.5897095524954106
 30
0.0
 11
0.0871414697439121
 21
-0.5897095524954106
 31
0.0
  0
ARC
  5
E3B
330
1F
100
AcDbEntity
  8
0
  6
Continuous
 62
     7
100
AcDbCircle
 10
0.3994700111229719
 20
-0.5852096048079043
 30
0.0
 40
0.3994953558125323
100
AcDbArc
 50
180.6453978983162
 51
239.3546021017146
  0
LINE
  5
E3C
330
1F
100
AcDbEntity
  8
0
  6
Continuous
 62
     7
100
AcDbLine
 10
0.2394086714203638
 20
-0.8534440821253535
 30
0.0
 11
0.2728449917525566
 21
-0.7955306764918542
 31
0.0
  0
LINE
  5
E3D
330
1F
100
AcDbEntity
  8
0
  6
Continuous
 62
     7
100
AcDbLine
 10
0.1958379365484078
 20
-0.9289108086466948
 30
0.0
 11
0.2294077792235925
 21
-0.870766135531188
 31
0.0
  0
ARC
  5
E45
330
1F
100
AcDbEntity
  8
0
  6
Continuous
 62
     7
100
AcDbCircle
 10
0.3996043093556239
 20
-0.585287141928678
 30
0.0
 40
0.2454971460625214
100
AcDbArc
 50
241.050286957052
 51
268.4828265070962
  0
ARC
  5
E46
330
1F
100
AcDbEntity
  8
0
  6
Continuous
 62
     7
100
AcDbCircle
 10
0.3996043093556239
 20
-0.585287141928678
 30
0.0
 40
0.245497146062523
100
AcDbArc
 50
271.5171734929045
 51
298.9497130429515
  0
LINE
  5
E47
330
1F
100
AcDbEntity
  8
0
  6
Continuous
 62
     7
100
AcDbLine
 10
0.2373362154824079
 20
-0.875343620339468
 30
0.0
 11
0.2037663728072303
 21
-0.9334882934549749
 31
0.0
  0
LINE
  5
E48
330
1F
100
AcDbEntity
  8
0
  6
Continuous
 62
     7
100
AcDbLine
 10
0.2807734280113721
 20
-0.8001081613001342
 30
0.0
 11
0.2473371076791793
 21
-0.8580215669336335
 31
0.0
  0
ARC
  5
E49
330
1F
100
AcDbEntity
  8
0
  6
Continuous
 62
     7
100
AcDbCircle
 10
0.3996043093556239
 20
-0.585287141928678
 30
0.0
 40
0.3994953558125327
100
AcDbArc
 50
240.6453978982891
 51
299.3546021017148
  0
LINE
  5
E4A
330
1F
100
AcDbEntity
  8
0
  6
Continuous
 62
     7
100
AcDbLine
 10
0.5518715110320755
 20
-0.8580215669336335
 30
0.0
 11
0.5184351906998828
 21
-0.80010816130012
 31
0.0
  0
LINE
  5
E4B
330
1F
100
AcDbEntity
  8
0
  6
Continuous
 62
     7
100
AcDbLine
 10
0.5954422459040387
 20
-0.9334882934549749
 30
0.0
 11
0.5618724032288469
 21
-0.875343620339468
 31
0.0
  0
ARC
  5
E52
330
1F
100
AcDbEntity
  8
0
  6
Continuous
 62
     7
100
AcDbCircle
 10
0.3997386075882758
 20
-0.5852096048079043
 30
0.0
 40
0.2454971460625226
100
AcDbArc
 50
301.050286957051
 51
358.9497130429503
  0
LINE
  5
E53
330
1F
100
AcDbEntity
  8
0
  6
Continuous
 62
     7
100
AcDbLine
 10
0.5698008394876624
 20
-0.870766135531188
 30
0.0
 11
0.6033706821628542
 21
-0.9289108086466948
 31
0.0
  0
LINE
  5
E54
330
1F
100
AcDbEntity
  8
0
  6
Continuous
 62
     7
100
AcDbLine
 10
0.5263636269586982
 20
-0.79553067649184
 30
0.0
 11
0.559799947290891
 21
-0.8534440821253535
 31
0.0
  0
ARC
  5
E55
330
1F
100
AcDbEntity
  8
0
  6
Continuous
 62
     7
100
AcDbCircle
 10
0.3997386075882758
 20
-0.5852096048079043
 30
0.0
 40
0.3994953558125324
100
AcDbArc
 50
300.6453978982884
 51
359.3546021017147
  0
LINE
  5
E56
330
1F
100
AcDbEntity
  8
0
  6
Continuous
 62
     7
100
AcDbLine
 10
0.7120671489673356
 20
-0.5897095524954106
 30
0.0
 11
0.64519450830295
 21
-0.5897095524954106
 31
0.0
  0
LINE
  5
E57
330
1F
100
AcDbEntity
  8
0
  6
Continuous
 62
     7
100
AcDbLine
 10
0.7992086187112477
 20
-0.5897095524954106
 30
0.0
 11
0.7320689333608854
 21
-0.5897095524954106
 31
0.0
  0
LINE
  5
E5A
330
1F
100
AcDbEntity
  8
0
  6
Continuous
 62
     7
100
AcDbLine
 10
0.2721667731499267
 20
-0.3745587381790367
 30
0.0
 11
0.2389795261998984
 21
-0.3170767402982515
 31
0.0
  0
ARC
  5
E5B
330
1F
100
AcDbEntity
  8
0
  6
Continuous
 62
     7
100
AcDbCircle
 10
0.3994700111229719
 20
-0.5850545305663568
 30
0.0
 40
0.2459971402500228
100
AcDbArc
 50
121.1646285608492
 51
148.4859109117922
  0
ARC
  5
E5F
330
1F
100
AcDbEntity
  8
0
  6
Continuous
 62
     7
100
AcDbCircle
 10
0.3994700111229719
 20
-0.5850545305663568
 30
0.0
 40
0.2454971460625216
100
AcDbArc
 50
121.0502869570507
 51
148.4828265070935
  0
ARC
  5
E60
330
1F
100
AcDbEntity
  8
0
  6
Continuous
 62
     7
100
AcDbCircle
 10
0.3994700111229719
 20
-0.5850545305663568
 30
0.0
 40
0.2454971460625232
100
AcDbArc
 50
151.5171734929007
 51
178.9497130429501
  0
LINE
  5
E61
330
1F
100
AcDbEntity
  8
0
  6
Continuous
 62
     7
100
AcDbLine
 10
0.2294077792235854
 20
-0.2994979998430731
 30
0.0
 11
0.1958379365483935
 21
-0.2413533267275663
 31
0.0
  0
LINE
  5
E62
330
1F
100
AcDbEntity
  8
0
  6
Continuous
 62
     7
100
AcDbLine
 10
0.2728449917525495
 20
-0.3747334588824212
 30
0.0
 11
0.2394086714203567
 21
-0.3168200532489076
 31
0.0
  0
ARC
  5
E63
330
1F
100
AcDbEntity
  8
0
  6
Continuous
 62
     7
100
AcDbCircle
 10
0.3994700111229719
 20
-0.5850545305663568
 30
0.0
 40
0.3994953558125323
100
AcDbArc
 50
120.6453978982882
 51
179.3546021017147
  0
LINE
  5
E64
330
1F
100
AcDbEntity
  8
0
  6
Continuous
 62
     7
100
AcDbLine
 10
0.0871414697439121
 20
-0.5805545828788505
 30
0.0
 11
0.1540141104082977
 21
-0.5805545828788505
 31
0.0
  0
LINE
  5
E65
330
1F
100
AcDbEntity
  8
0
  6
Continuous
 62
     7
100
AcDbLine
 10
0.0
 20
-0.5805545828788505
 30
0.0
 11
0.0671396853503694
 21
-0.5805545828788505
 31
0.0
  0
LINE
  5
E6C
330
1F
100
AcDbEntity
  8
0
  6
Continuous
 62
     7
100
AcDbLine
 10
0.6035507004886895
 20
-0.2420415142159025
 30
0.0
 11
0.5702302170864826
 21
-0.2997542844012779
 31
0.0
  0
ARC
  5
E6D
330
1F
100
AcDbEntity
  8
0
  6
Continuous
 62
     7
100
AcDbCircle
 10
0.3997386075882758
 20
-0.5850545305663568
 30
0.0
 40
0.2454971460625213
100
AcDbArc
 50
1.050286957051358
 51
28.48282650709587
  0
ARC
  5
E6E
330
1F
100
AcDbEntity
  8
0
  6
Continuous
 62
     7
100
AcDbCircle
 10
0.3997386075882758
 20
-0.5850545305663568
 30
0.0
 40
0.2454971460625232
100
AcDbArc
 50
31.51717349290482
 51
58.94971304295018
  0
LINE
  5
E6F
330
1F
100
AcDbEntity
  8
0
  6
Continuous
 62
     7
100
AcDbLine
 10
0.7320689333608854
 20
-0.5805545828788505
 30
0.0
 11
0.7992086187112477
 21
-0.5805545828788363
 31
0.0
  0
LINE
  5
E70
330
1F
100
AcDbEntity
  8
0
  6
Continuous
 62
     7
100
AcDbLine
 10
0.64519450830295
 20
-0.5805545828788505
 30
0.0
 11
0.7120671489673356
 21
-0.5805545828788505
 31
0.0
  0
ARC
  5
E71
330
1F
100
AcDbEntity
  8
0
  6
Continuous
 62
     7
100
AcDbCircle
 10
0.3997386075882758
 20
-0.5850545305663568
 30
0.0
 40
0.3994953558125321
100
AcDbArc
 50
0.6453978983211064
 51
59.35460210171379
  0
LINE
  5
E72
330
1F
100
AcDbEntity
  8
0
  6
Continuous
 62
     7
100
AcDbLine
 10
0.5597999472908839
 20
-0.3168200532489076
 30
0.0
 11
0.5263636269586911
 21
-0.3747334588824069
 31
0.0
  0
LINE
  5
E73
330
1F
100
AcDbEntity
  8
0
  6
Continuous
 62
     7
100
AcDbLine
 10
0.60337068216284
 20
-0.2413533267275521
 30
0.0
 11
0.5698008394876624
 21
-0.2994979998430731
 31
0.0
  0
LWPOLYLINE
  5
E74
330
1F
100
AcDbEntity
  8
0
  6
Continuous
 62
     7
100
AcDbPolyline
 90
       15
 70
   128
 43
0.0
 10
0.1158702888318714
 20
-0.4288236208068847
 10
0.115421187489261
 20
-0.4285113675827612
 10
0.1146742256845386
 20
-0.4276496777134222
 10
0.1141863463183412
 20
-0.4265283733032599
 10
0.113985979497464
 20
-0.4252127959229919
 10
0.1140848011616882
 20
-0.4237796079772844
 10
0.1144770526939212
 20
-0.4223123253702037
 10
0.1151398764909928
 20
-0.4208964507978588
 10
0.1160346479406869
 20
-0.4196144912651827
 10
0.1171092261868409
 20
-0.4185411501700467
 10
0.1183009925240981
 20
-0.4177389741255448
 10
0.1195404993664866
 20
-0.4172547081923776
 10
0.1207555171541657
 20
-0.4171165719123915
 10
0.1218752433735659
 20
-0.4173326148762622
 10
0.1223702132693703
 20
-0.4175654214357858
  0
LWPOLYLINE
  5
E75
330
1F
100
AcDbEntity
  8
0
  6
Continuous
 62
     7
100
AcDbPolyline
 90
       16
 70
   128
 43
0.0
 10
0.1299546911197993
 20
-0.4369552542591928
 10
0.1295145729197316
 20
-0.4366504026201776
 10
0.1287893195463781
 20
-0.4358297916684146
 10
0.1283020979606277
 20
-0.4347663884751578
 10
0.1280791744042773
 20
-0.4335175213818057
 10
0.1281325667439503
 20
-0.4321505171365951
 10
0.1284593965848089
 20
-0.430739071292255
 10
0.1290420444455194
 20
-0.429359275259561
 10
0.129849099629098
 20
-0.4280855141998112
 10
0.1308370535817147
 20
-0.4269864569014212
 10
0.131952645450049
 20
-0.4261213538278137
 10
0.133135733387725
 20
-0.4255368429096402
 10
0.1343225368177841
 20
-0.4252644352817792
 10
0.1354490748601265
 20
-0.4253188165099469
 10
0.1364546155572981
 20
-0.4256970548880796
 10
0.1364546155572981
 20
-0.4256970548880796
  0
LWPOLYLINE
  5
E76
330
1F
100
AcDbEntity
  8
0
  6
Continuous
 62
     7
100
AcDbPolyline
 90
       15
 70
   128
 43
0.0
 10
0.6768384054418846
 20
-0.4175654214357858
 10
0.6773333753376889
 20
-0.4173326148762622
 10
0.6784531015570892
 20
-0.4171165719124057
 10
0.6796681193447611
 20
-0.4172547081923776
 10
0.6809076261871567
 20
-0.4177389741255448
 10
0.6820993925244139
 20
-0.4185411501700609
 10
0.683173970770568
 20
-0.4196144912651827
 10
0.684068742220262
 20
-0.4208964507978588
 10
0.6847315660173336
 20
-0.4223123253702179
 10
0.6851238175495666
 20
-0.4237796079772986
 10
0.6852226392137908
 20
-0.4252127959230061
 10
0.6850222723929065
 20
-0.4265283733032599
 10
0.6845343930267163
 20
-0.4276496777134364
 10
0.6837874312219938
 20
-0.4285113675827754
 10
0.6833383298793834
 20
-0.428823620806899
  0
LWPOLYLINE
  5
E77
330
1F
100
AcDbEntity
  8
0
  6
Continuous
 62
     7
100
AcDbPolyline
 90
       16
 70
   128
 43
0.0
 10
0.6627540031539567
 20
-0.4256970548880938
 10
0.6632380715177675
 20
-0.4254683271656925
 10
0.6643113681352872
 20
-0.4252505447960611
 10
0.6654759131079899
 20
-0.4253603001221544
 10
0.666668925514962
 20
-0.4257916762059362
 10
0.6678260897485515
 20
-0.4265214174510599
 10
0.6688850227853962
 20
-0.4275101833181234
 10
0.6697886372713882
 20
-0.4287046691833079
 10
0.6704882191156969
 20
-0.4300404800044257
 10
0.6709460536800194
 20
-0.431445601874348
 10
0.6711374589844752
 20
-0.4328442843093863
 10
0.6710521163195722
 20
-0.4341611239774077
 10
0.6706946265304552
 20
-0.4353251297110641
 10
0.6700842619841936
 20
-0.4362735496599763
 10
0.6692539275914555
 20
-0.436955254259207
 10
0.6692539275914555
 20
-0.436955254259207
  0
LWPOLYLINE
  5
E78
330
1F
100
AcDbEntity
  8
0
  6
Continuous
 62
     7
100
AcDbPolyline
 90
       15
 70
   128
 43
0.0
 10
0.4061042337931227
 20
-0.9090071608187069
 10
0.4060583652399288
 20
-0.9095522206023541
 10
0.405685600825251
 20
-0.9106299534355637
 10
0.4049584624037621
 20
-0.9116131215657541
 10
0.4039193223822579
 20
-0.9124444330128549
 10
0.4026287343807695
 20
-0.9130754449140321
 10
0.4011619046023824
 20
-0.9134693864259911
 10
0.3996043093556239
 20
-0.9136033014656741
 10
0.3980467141088582
 20
-0.9134693864259911
 10
0.3965798843304711
 20
-0.9130754449140321
 10
0.3952892963289898
 20
-0.9124444330128549
 10
0.3942501563074785
 20
-0.9116131215657541
 10
0.3935230178859968
 20
-0.9106299534355637
 10
0.3931502534713189
 20
-0.9095522206023541
 10
0.393104384918125
 20
-0.9090071608187069
  0
LWPOLYLINE
  5
E79
330
1F
100
AcDbEntity
  8
0
  6
Continuous
 62
     7
100
AcDbPolyline
 90
       16
 70
   128
 43
0.0
 10
0.4061042337931227
 20
-0.892743893914105
 10
0.4060602836293725
 20
-0.8932774732755357
 10
0.4057122403852063
 20
-0.894315866596916
 10
0.405034916998261
 20
-0.8952695144640794
 10
0.4040648281476322
 20
-0.896087005473664
 10
0.4028542715743697
 20
-0.8967242684737367
 10
0.4014685086966736
 20
-0.8971469484510133
 10
0.3999822463499711
 20
-0.8973322586185228
 10
0.3984756093220767
 20
-0.8972702088571547
 10
0.3970298208051446
 20
-0.8969641442856224
 10
0.3957228236323473
 20
-0.8964305649241917
 10
0.3946250783595815
 20
-0.8956982361743437
 10
0.3937957647186394
 20
-0.8948066380685484
 10
0.3932795912225586
 20
-0.8938038368914543
 10
0.393104384918125
 20
-0.892743893914105
 10
0.393104384918125
 20
-0.892743893914105
  0
LWPOLYLINE
  5
E7A
330
1F
100
AcDbEntity
  8
0
  6
Continuous
 62
     7
100
AcDbPolyline
 90
       16
 70
   128
 43
0.0
 10
0.1364546155572981
 20
-0.4256970548880796
 10
0.1359705471934802
 20
-0.4254683271656783
 10
0.1348972505759605
 20
-0.4252505447960468
 10
0.1337327056032649
 20
-0.4253603001221402
 10
0.1325396931962928
 20
-0.425791676205922
 10
0.1313825289627033
 20
-0.4265214174510457
 10
0.1303235959258586
 20
-0.4275101833181092
 10
0.1294199814398667
 20
-0.4287046691832936
 10
0.1287203995955579
 20
-0.4300404800044115
 10
0.1282625650312355
 20
-0.431445601874348
 10
0.1280711597267796
 20
-0.4328442843093863
 10
0.1281565023916826
 20
-0.4341611239774077
 10
0.1285139921807996
 20
-0.4353251297110641
 10
0.1291243567270612
 20
-0.4362735496599763
 10
0.1299546911197993
 20
-0.4369552542591928
 10
0.1299546911197993
 20
-0.4369552542591928
  0
LWPOLYLINE
  5
E7B
330
1F
100
AcDbEntity
  8
0
  6
Continuous
 62
     7
100
AcDbPolyline
 90
       16
 70
   128
 43
0.0
 10
0.6692539275914555
 20
-0.436955254259207
 10
0.6696940457915161
 20
-0.4366504026201776
 10
0.6704192991648767
 20
-0.4358297916684288
 10
0.6709065207506271
 20
-0.434766388475172
 10
0.6711294443069775
 20
-0.4335175213818057
 10
0.6710760519672974
 20
-0.4321505171366093
 10
0.6707492221264459
 20
-0.430739071292255
 10
0.6701665742657354
 20
-0.4293592752595752
 10
0.6693595190821497
 20
-0.4280855141998112
 10
0.668371565129533
 20
-0.4269864569014212
 10
0.6672559732611987
 20
-0.4261213538278279
 10
0.6660728853235298
 20
-0.4255368429096544
 10
0.6648860818934708
 20
-0.4252644352817792
 10
0.6637595438511283
 20
-0.4253188165099611
 10
0.6627540031539567
 20
-0.4256970548880938
 10
0.6627540031539567
 20
-0.4256970548880938
  0
LWPOLYLINE
  5
E7C
330
1F
100
AcDbEntity
  8
0
  6
Continuous
 62
     7
100
AcDbPolyline
 90
       16
 70
   128
 43
0.0
 10
0.393104384918125
 20
-0.892743893914105
 10
0.3931483350818752
 20
-0.8932774732755357
 10
0.3934963783260415
 20
-0.894315866596916
 10
0.3941737017129867
 20
-0.8952695144640794
 10
0.3951437905636084
 20
-0.896087005473664
 10
0.3963543471368709
 20
-0.8967242684737367
 10
0.397740110014567
 20
-0.8971469484510133
 10
0.3992263723612695
 20
-0.8973322586185228
 10
0.4007330093891639
 20
-0.8972702088571547
 10
0.4021787979061031
 20
-0.8969641442856224
 10
0.4034857950788933
 20
-0.8964305649241917
 10
0.4045835403516662
 20
-0.8956982361743437
 10
0.4054128539926083
 20
-0.8948066380685342
 10
0.4059290274886891
 20
-0.8938038368914543
 10
0.4061042337931227
 20
-0.892743893914105
 10
0.4061042337931227
 20
-0.892743893914105
  0
CIRCLE
  5
E7E
330
1F
100
AcDbEntity
  8
0
  6
Continuous
 62
     7
100
AcDbCircle
 10
0.3996043093556239
 20
-0.5851320676871306
 30
0.0
 40
0.0549993606249996
  0
ARC
  5
E82
330
1F
100
AcDbEntity
  8
0
  6
Continuous
 62
     7
100
AcDbCircle
 10
0.3996043093556239
 20
-0.5851320676871306
 30
0.0
 40
0.0349995931250001
100
AcDbArc
 50
274.0960437581521
 51
281.536959032816
  0
ARC
  5
E83
330
1F
100
AcDbEntity
  8
0
  6
Continuous
 62
     7
100
AcDbCircle
 10
0.3996043093556239
 20
-0.5851320676871306
 30
0.0
 40
0.0349995931249999
100
AcDbArc
 50
94.09604375815293
 51
101.5369590328165
  0
ARC
  5
E84
330
1F
100
AcDbEntity
  8
0
  6
Continuous
 62
     7
100
AcDbCircle
 10
0.3996056290088532
 20
-0.5851376297882391
 30
0.0
 40
0.0349938794709865
100
AcDbArc
 50
281.5366633830183
 51
285.6931981136867
  0
ARC
  5
E85
330
1F
100
AcDbEntity
  8
0
  6
Continuous
 62
     7
100
AcDbCircle
 10
0.3996029896890008
 20
-0.5851265055312818
 30
0.0
 40
0.0349938794146609
100
AcDbArc
 50
101.5366633794555
 51
105.6931981168144
  0
CIRCLE
  5
E89
330
1F
100
AcDbEntity
  8
0
  6
Continuous
 62
     7
100
AcDbCircle
 10
0.3996043093556239
 20
-0.5851320676871306
 30
0.0
 40
0.0349995931250004
  0
CIRCLE
  5
E8B
330
1F
100
AcDbEntity
  8
0
  6
Continuous
 62
     7
100
AcDbCircle
 10
0.3996043093556239
 20
-0.5851320676871306
 30
0.0
 40
0.3324961346875001
  0
ARC
  5
E8C
330
1F
100
AcDbEntity
  8
0
  6
Continuous
 62
     7
100
AcDbCircle
 10
0.3996043093556239
 20
-0.5851320676871306
 30
0.0
 40
0.3124963671875001
100
AcDbArc
 50
90.00000000000016
 51
148.8081618361125
  0
ARC
  5
E8D
330
1F
100
AcDbEntity
  8
0
  6
Continuous
 62
     7
100
AcDbCircle
 10
0.3996043093556239
 20
-0.5851320676871306
 30
0.0
 40
0.3124963671875003
100
AcDbArc
 50
151.1918381638855
 51
268.8081618361142
  0
ARC
  5
E8E
330
1F
100
AcDbEntity
  8
0
  6
Continuous
 62
     7
100
AcDbCircle
 10
0.3996043093556239
 20
-0.5851320676871306
 30
0.0
 40
0.3124963671875002
100
AcDbArc
 50
271.1918381638866
 51
28.80816183611253
  0
ARC
  5
E8F
330
1F
100
AcDbEntity
  8
0
  6
Continuous
 62
     7
100
AcDbCircle
 10
0.3996043093556239
 20
-0.5851320676871306
 30
0.0
 40
0.3124963671875002
100
AcDbArc
 50
31.19183816388576
 51
90.00000000000011
  0
LINE
  5
E90
330
1F
100
AcDbEntity
  8
0
  6
Continuous
 62
     7
100
AcDbLine
 10
0.1158702888318714
 20
-0.4288236208068847
 30
0.0
 11
0.1299546911197993
 21
-0.4369552542591928
 31
0.0
  0
LINE
  5
E91
330
1F
100
AcDbEntity
  8
0
  6
Continuous
 62
     7
100
AcDbLine
 10
0.1364546155572981
 20
-0.4256970548880938
 30
0.0
 11
0.1223702132693703
 21
-0.4175654214357858
 31
0.0
  0
LINE
  5
E92
330
1F
100
AcDbEntity
  8
0
  6
Continuous
 62
     7
100
AcDbLine
 10
0.6768384054418846
 20
-0.4175654214357858
 30
0.0
 11
0.6627540031539567
 21
-0.4256970548880938
 31
0.0
  0
LINE
  5
E93
330
1F
100
AcDbEntity
  8
0
  6
Continuous
 62
     7
100
AcDbLine
 10
0.6692539275914555
 20
-0.436955254259207
 30
0.0
 11
0.6833383298793834
 21
-0.428823620806899
 31
0.0
  0
LINE
  5
E94
330
1F
100
AcDbEntity
  8
0
  6
Continuous
 62
     7
100
AcDbLine
 10
0.4061042337931227
 20
-0.9090071608187211
 30
0.0
 11
0.4061042337931227
 21
-0.892743893914105
 31
0.0
  0
LINE
  5
E95
330
1F
100
AcDbEntity
  8
0
  6
Continuous
 62
     7
100
AcDbLine
 10
0.393104384918125
 20
-0.892743893914105
 30
0.0
 11
0.393104384918125
 21
-0.9090071608187211
 31
0.0
  0
LINE
  5
E96
330
1F
100
AcDbEntity
  8
0
  6
Continuous
 62
     7
100
AcDbLine
 10
0.1299546911197993
 20
-0.4369552542591928
 30
0.0
 11
0.3490573018951366
 21
-0.5634542055704979
 31
0.0
  0
LINE
  5
E97
330
1F
100
AcDbEntity
  8
0
  6
Continuous
 62
     7
100
AcDbLine
 10
0.3555572263326354
 20
-0.5521960061993847
 30
0.0
 11
0.1364546155572981
 21
-0.4256970548880938
 31
0.0
  0
LINE
  5
E98
330
1F
100
AcDbEntity
  8
0
  6
Continuous
 62
     7
100
AcDbLine
 10
0.6627540031539567
 20
-0.4256970548880938
 30
0.0
 11
0.4436513923786123
 21
-0.5521960061993847
 31
0.0
  0
LINE
  5
E99
330
1F
100
AcDbEntity
  8
0
  6
Continuous
 62
     7
100
AcDbLine
 10
0.4501513168161111
 20
-0.5634542055704979
 30
0.0
 11
0.6692539275914555
 21
-0.436955254259207
 31
0.0
  0
LINE
  5
E9A
330
1F
100
AcDbEntity
  8
0
  6
Continuous
 62
     7
100
AcDbLine
 10
0.4061042337931227
 20
-0.892743893914105
 30
0.0
 11
0.4061042337931227
 21
-0.6397459912915233
 31
0.0
  0
LINE
  5
E9B
330
1F
100
AcDbEntity
  8
0
  6
Continuous
 62
     7
100
AcDbLine
 10
0.3931043849181179
 20
-0.6397459912915233
 30
0.0
 11
0.393104384918125
 21
-0.892743893914105
 31
0.0
  0
LINE
  5
EA1
330
1F
100
AcDbEntity
  8
0
  6
Continuous
 62
     7
100
AcDbLine
 10
0.3926043907306251
 20
0.2219044646026589
 30
0.0
 11
0.4066042279806226
 21
0.2219044646026589
 31
0.0
  0
LWPOLYLINE
  5
EA2
330
1F
100
AcDbEntity
  8
0
  6
Continuous
 62
     7
100
AcDbPolyline
 90
       12
 70
   128
 43
0.0
 10
0.3926699158195888
 20
0.2168584780707903
 10
0.3926300247789811
 20
0.216881797988222
 10
0.3930548451488178
 20
0.2165774807740206
 10
0.3939841602834662
 20
0.2159699080315107
 10
0.3955493123298766
 20
0.2150994750292483
 10
0.3978754384193479
 20
0.2142480861505334
 10
0.3996154981431204
 20
0.2140459929659642
 10
0.4013567162142166
 20
0.2142535516656778
 10
0.4033197737675991
 20
0.2149391706979884
 10
0.4049339796026103
 20
0.2157932935339204
 10
0.4061002005591732
 20
0.2165406507145349
 10
0.406271203890185
 20
0.2166591016958108
  0
LWPOLYLINE
  5
EA3
330
1F
100
AcDbEntity
  8
0
  6
Continuous
 62
     7
100
AcDbPolyline
 90
        3
 70
   128
 43
0.0
 10
0.406271203890185
 20
0.2166591016958108
 10
0.4066013293976809
 20
0.2169006779538165
 10
0.406578877957152
 20
0.2168865460042895
  0
LINE
  5
EA4
330
1F
100
AcDbEntity
  8
0
  6
Continuous
 62
     7
100
AcDbLine
 10
0.6718943366677408
 20
0.2219044646026589
 30
0.0
 11
0.6753942959802401
 21
0.2219044646026589
 31
0.0
  0
LINE
  5
EA5
330
1F
100
AcDbEntity
  8
0
  6
Continuous
 62
     7
100
AcDbLine
 10
0.6753942959802401
 20
0.2219044646026589
 30
0.0
 11
0.6858941739177382
 21
0.2219044646026589
 31
0.0
  0
LINE
  5
EA6
330
1F
100
AcDbEntity
  8
0
  6
Continuous
 62
     7
100
AcDbLine
 10
0.1133144447935095
 20
0.2219044646026589
 30
0.0
 11
0.1273142820435069
 21
0.2219044646026589
 31
0.0
  0
LINE
  5
EA7
330
1F
100
AcDbEntity
  8
0
  6
Continuous
 62
     7
100
AcDbLine
 10
0.2037663728072303
 20
0.1999976750000059
 30
0.0
 11
0.5954422459040387
 21
0.1999976750000059
 31
0.0
  0
LINE
  5
EA8
330
1F
100
AcDbEntity
  8
0
  6
Continuous
 62
     7
100
AcDbLine
 10
0.2037663728072303
 20
0.0
 30
0.0
 11
0.2037663728072303
 21
0.1999976750000059
 31
0.0
  0
LINE
  5
EA9
330
1F
100
AcDbEntity
  8
0
  6
Continuous
 62
     7
100
AcDbLine
 10
0.2037663728072303
 20
0.0
 30
0.0
 11
0.5954422459040387
 21
0.0
 31
0.0
  0
LINE
  5
EAA
330
1F
100
AcDbEntity
  8
0
  6
Continuous
 62
     7
100
AcDbLine
 10
0.5954422459040387
 20
0.0
 30
0.0
 11
0.5954422459040387
 21
0.1999976750000059
 31
0.0
  0
LINE
  5
EAB
330
1F
100
AcDbEntity
  8
0
  6
Continuous
 62
     7
100
AcDbLine
 10
0.5954422459040387
 20
0.1999976750000059
 30
0.0
 11
0.6033706821628471
 21
0.1999976750000059
 31
0.0
  0
LINE
  5
EAC
330
1F
100
AcDbEntity
  8
0
  6
Continuous
 62
     7
100
AcDbLine
 10
0.5954422459040387
 20
0.0
 30
0.0
 11
0.6033706821628471
 21
0.0
 31
0.0
  0
LINE
  5
EAD
330
1F
100
AcDbEntity
  8
0
  6
Continuous
 62
     7
100
AcDbLine
 10
0.6033706821628471
 20
0.1999976750000059
 30
0.0
 11
0.7992086187112477
 21
0.1999976750000059
 31
0.0
  0
LINE
  5
EAE
330
1F
100
AcDbEntity
  8
0
  6
Continuous
 62
     7
100
AcDbLine
 10
0.6033706821628471
 20
0.0
 30
0.0
 11
0.6033706821628471
 21
0.1999976750000059
 31
0.0
  0
LINE
  5
EAF
330
1F
100
AcDbEntity
  8
0
  6
Continuous
 62
     7
100
AcDbLine
 10
0.6033706821628471
 20
0.0
 30
0.0
 11
0.7992086187112477
 21
0.0
 31
0.0
  0
LINE
  5
EB0
330
1F
100
AcDbEntity
  8
0
  6
Continuous
 62
     7
100
AcDbLine
 10
0.7992086187112477
 20
0.0
 30
0.0
 11
0.7992086187112477
 21
0.1999976750000059
 31
0.0
  0
LINE
  5
EB1
330
1F
100
AcDbEntity
  8
0
  6
Continuous
 62
     7
100
AcDbLine
 10
0.0
 20
0.0
 30
0.0
 11
0.1958379365484078
 21
0.0
 31
0.0
  0
LINE
  5
EB2
330
1F
100
AcDbEntity
  8
0
  6
Continuous
 62
     7
100
AcDbLine
 10
0.0
 20
0.1999976750000059
 30
0.0
 11
0.1958379365484078
 21
0.1999976750000059
 31
0.0
  0
LINE
  5
EB3
330
1F
100
AcDbEntity
  8
0
  6
Continuous
 62
     7
100
AcDbLine
 10
0.0
 20
0.0
 30
0.0
 11
0.0
 21
0.1999976750000059
 31
0.0
  0
LINE
  5
EB4
330
1F
100
AcDbEntity
  8
0
  6
Continuous
 62
     7
100
AcDbLine
 10
0.1958379365484078
 20
0.1999976750000059
 30
0.0
 11
0.2037663728072303
 21
0.1999976750000059
 31
0.0
  0
LINE
  5
EB5
330
1F
100
AcDbEntity
  8
0
  6
Continuous
 62
     7
100
AcDbLine
 10
0.1958379365484078
 20
0.0
 30
0.0
 11
0.1958379365484078
 21
0.1999976750000059
 31
0.0
  0
LINE
  5
EB6
330
1F
100
AcDbEntity
  8
0
  6
Continuous
 62
     7
100
AcDbLine
 10
0.1958379365484078
 20
0.0
 30
0.0
 11
0.2037663728072303
 21
0.0
 31
0.0
  0
LINE
  5
EB7
330
1F
100
AcDbEntity
  8
0
  6
Continuous
 62
     7
100
AcDbLine
 10
0.4048542483243764
 20
0.5174810284851645
 30
0.0
 11
0.4471037571681293
 21
0.5174810284851645
 31
0.0
  0
LINE
  5
EB8
330
1F
100
AcDbEntity
  8
0
  6
Continuous
 62
     7
100
AcDbLine
 10
0.4048542483243764
 20
0.520480993610164
 30
0.0
 11
0.4471037571681293
 21
0.520480993610164
 31
0.0
  0
LINE
  5
EB9
330
1F
100
AcDbEntity
  8
0
  6
Continuous
 62
     7
100
AcDbLine
 10
0.4048542483243764
 20
0.520480993610164
 30
0.0
 11
0.4048542483243764
 21
0.5174810284851645
 31
0.0
  0
LINE
  5
EBA
330
1F
100
AcDbEntity
  8
0
  6
Continuous
 62
     7
100
AcDbLine
 10
0.3521048615431255
 20
0.5174810284851645
 30
0.0
 11
0.3943543703868784
 21
0.5174810284851645
 31
0.0
  0
LINE
  5
EBB
330
1F
100
AcDbEntity
  8
0
  6
Continuous
 62
     7
100
AcDbLine
 10
0.3521048615431255
 20
0.520480993610164
 30
0.0
 11
0.3943543703868784
 21
0.520480993610164
 31
0.0
  0
LINE
  5
EBC
330
1F
100
AcDbEntity
  8
0
  6
Continuous
 62
     7
100
AcDbLine
 10
0.3943543703868784
 20
0.520480993610164
 30
0.0
 11
0.3943543703868784
 21
0.5174810284851645
 31
0.0
  0
LINE
  5
EBD
330
1F
100
AcDbEntity
  8
0
  6
Continuous
 62
     7
100
AcDbLine
 10
0.6750573144243504
 20
0.2233847042368922
 30
0.0
 11
0.6765572969868501
 21
0.2251167349093777
 31
0.0
  0
LINE
  5
EBE
330
1F
100
AcDbEntity
  8
0
  6
Continuous
 62
     7
100
AcDbLine
 10
0.6756387490115472
 20
0.2261773827509757
 30
0.0
 11
0.6752203758553676
 21
0.2256942870422876
 31
0.0
  0
LINE
  5
EBF
330
1F
100
AcDbEntity
  8
0
  6
Continuous
 62
     7
100
AcDbLine
 10
0.6752203758553676
 20
0.2256942870422876
 30
0.0
 11
0.671925496274234
 21
0.2294988862685159
 31
0.0
  0
LWPOLYLINE
  5
EC0
330
1F
100
AcDbEntity
  8
0
  6
Continuous
 62
     7
100
AcDbPolyline
 90
        3
 70
   128
 43
0.0
 10
0.6752203758553676
 20
0.2256942870422876
 10
0.6753269077319288
 20
0.2263838105427425
 10
0.6753651965828595
 20
0.2264932538876536
  0
LWPOLYLINE
  5
EC1
330
1F
100
AcDbEntity
  8
0
  6
Continuous
 62
     7
100
AcDbPolyline
 90
        9
 70
   128
 43
0.0
 10
0.6725459916975538
 20
0.2297485912865227
 10
0.6719958334911524
 20
0.2295240776285823
 10
0.6714827587345908
 20
0.2293613663538707
 10
0.6710141385113388
 20
0.2292627950523496
 10
0.6705967052492028
 20
0.2292297798476426
 10
0.6702364559990599
 20
0.2292627950523496
 10
0.6699385662782049
 20
0.2293613663538707
 10
0.6697073157164013
 20
0.2295240776285823
 10
0.6696635987795929
 20
0.2295707211022631
  0
LINE
  5
EC2
330
1F
100
AcDbEntity
  8
0
  6
Continuous
 62
     7
100
AcDbLine
 10
0.6725459916975538
 20
0.2297485912865227
 30
0.0
 11
0.6780572795493498
 21
0.2233847042368922
 31
0.0
  0
LWPOLYLINE
  5
EC3
330
1F
100
AcDbEntity
  8
0
  6
Continuous
 62
     7
100
AcDbPolyline
 90
       11
 70
   128
 43
0.0
 10
0.6850018486898719
 20
0.2317172328372976
 10
0.6851238175495666
 20
0.2315303175402903
 10
0.6852226392137908
 20
0.2308993056390989
 10
0.6850222723929065
 20
0.2300679941920123
 10
0.6845343930267163
 20
0.2290848260618219
 10
0.6837874312219938
 20
0.228007093228598
 10
0.6828249145499825
 20
0.2268975982243973
 10
0.6817029315720333
 20
0.2258209944525333
 10
0.6804868634009296
 20
0.2248400186514772
 10
0.6792475737590493
 20
0.2240118350480884
 10
0.6780572795493498
 20
0.2233847042368922
  0
LINE
  5
EC4
330
1F
100
AcDbEntity
  8
0
  6
Continuous
 62
     7
100
AcDbLine
 10
0.669822848576473
 20
0.2294289447695661
 30
0.0
 11
0.6750573144243504
 21
0.2233847042368922
 31
0.0
  0
LINE
  5
EC5
330
1F
100
AcDbEntity
  8
0
  6
Continuous
 62
     7
100
AcDbLine
 10
0.1226513217244047
 20
0.2251167349093635
 30
0.0
 11
0.1241513042869045
 21
0.2233847042368922
 31
0.0
  0
LINE
  5
EC6
330
1F
100
AcDbEntity
  8
0
  6
Continuous
 62
     7
100
AcDbLine
 10
0.1239882428558872
 20
0.2256942870422876
 30
0.0
 11
0.1235698696997005
 21
0.2261773827509757
 31
0.0
  0
LWPOLYLINE
  5
EC7
330
1F
100
AcDbEntity
  8
0
  6
Continuous
 62
     7
100
AcDbPolyline
 90
        3
 70
   128
 43
0.0
 10
0.1238434221283953
 20
0.2264932538876536
 10
0.123881710979326
 20
0.2263838105427425
 10
0.1239882428558872
 20
0.2256942870422876
  0
LINE
  5
EC8
330
1F
100
AcDbEntity
  8
0
  6
Continuous
 62
     7
100
AcDbLine
 10
0.1272831224370208
 20
0.2294988862685159
 30
0.0
 11
0.1239882428558872
 21
0.2256942870422876
 31
0.0
  0
LWPOLYLINE
  5
EC9
330
1F
100
AcDbEntity
  8
0
  6
Continuous
 62
     7
100
AcDbPolyline
 90
        9
 70
   128
 43
0.0
 10
0.1295450199316548
 20
0.2295707211022631
 10
0.1295013029948535
 20
0.2295240776285823
 10
0.1292700524330499
 20
0.2293613663538707
 10
0.1289721627121949
 20
0.2292627950523496
 10
0.128611913462052
 20
0.2292297798476426
 10
0.128194480199916
 20
0.2292627950523496
 10
0.1277258599766569
 20
0.2293613663538707
 10
0.1272127852201024
 20
0.2295240776285823
 10
0.126662627013701
 20
0.2297485912865227
  0
LINE
  5
ECA
330
1F
100
AcDbEntity
  8
0
  6
Continuous
 62
     7
100
AcDbLine
 10
0.1293857701347818
 20
0.2294289447695661
 30
0.0
 11
0.1241513042869045
 21
0.2233847042368922
 31
0.0
  0
LWPOLYLINE
  5
ECB
330
1F
100
AcDbEntity
  8
0
  6
Continuous
 62
     7
100
AcDbPolyline
 90
       11
 70
   128
 43
0.0
 10
0.121151339161905
 20
0.2233847042368922
 10
0.1199610449522055
 20
0.2240118350480884
 10
0.1187217553103252
 20
0.2248400186514772
 10
0.1175056871392215
 20
0.2258209944525333
 10
0.1163837041612723
 20
0.2268975982243973
 10
0.115421187489261
 20
0.228007093228598
 10
0.1146742256845386
 20
0.2290848260618219
 10
0.1141863463183412
 20
0.2300679941920123
 10
0.113985979497464
 20
0.2308993056390989
 10
0.1140848011616882
 20
0.2315303175402903
 10
0.1142067700213829
 20
0.2317172328372976
  0
LINE
  5
ECC
330
1F
100
AcDbEntity
  8
0
  6
Continuous
 62
     7
100
AcDbLine
 10
0.126662627013701
 20
0.2297485912865227
 30
0.0
 11
0.121151339161905
 21
0.2233847042368922
 31
0.0
  0
LINE
  5
ECD
330
1F
100
AcDbEntity
  8
0
  6
Continuous
 62
     7
100
AcDbLine
 10
0.3966043442306244
 20
0.2287367735043375
 30
0.0
 11
0.3966043442306244
 21
0.2233847042368922
 31
0.0
  0
LINE
  5
ECE
330
1F
100
AcDbEntity
  8
0
  6
Continuous
 62
     7
100
AcDbLine
 10
0.4026042744806233
 20
0.2233847042368922
 30
0.0
 11
0.4026042744806233
 21
0.2287367735043375
 31
0.0
  0
LWPOLYLINE
  5
ECF
330
1F
100
AcDbEntity
  8
0
  6
Continuous
 62
     7
100
AcDbPolyline
 90
        7
 70
   128
 43
0.0
 10
0.3975495285750696
 20
0.2294654793680024
 10
0.3980601168992379
 20
0.2293613663538707
 10
0.3988266268433449
 20
0.2292627950523496
 10
0.3996043093556239
 20
0.2292297798476426
 10
0.4003819918678957
 20
0.2292627950523496
 10
0.4011485018120098
 20
0.2293613663538707
 10
0.401659090136171
 20
0.2294654793680024
  0
LWPOLYLINE
  5
ED0
330
1F
100
AcDbEntity
  8
0
  6
Continuous
 62
     7
100
AcDbPolyline
 90
       23
 70
   128
 43
0.0
 10
0.4026042744806233
 20
0.2233847042368922
 10
0.4038986404720504
 20
0.2240118350480884
 10
0.4049427636767362
 20
0.2248400186514772
 10
0.4056758000905134
 20
0.2258209944525333
 10
0.4060550336139315
 20
0.2268975982243973
 10
0.4060583652399288
 20
0.228007093228598
 10
0.405685600825251
 20
0.2290848260618219
 10
0.4049584624037621
 20
0.2300679941920123
 10
0.4039193223822579
 20
0.2308993056390989
 10
0.4026287343807695
 20
0.2315303175402903
 10
0.4011619046023824
 20
0.231924259052235
 10
0.3996043093556239
 20
0.2320581740919181
 10
0.3980467141088582
 20
0.231924259052235
 10
0.3965798843304711
 20
0.2315303175402903
 10
0.3952892963289898
 20
0.2308993056390989
 10
0.3942501563074785
 20
0.2300679941920123
 10
0.3935230178859968
 20
0.2290848260618219
 10
0.3931502534713189
 20
0.228007093228598
 10
0.3931535850973091
 20
0.2268975982243973
 10
0.3935328186207343
 20
0.2258209944525333
 10
0.3942658550345044
 20
0.2248400186514772
 10
0.3953099782391973
 20
0.2240118350480884
 10
0.3966043442306244
 20
0.2233847042368922
  0
LWPOLYLINE
  5
ED1
330
1F
100
AcDbEntity
  8
0
  6
Continuous
 62
     7
100
AcDbPolyline
 90
        4
 70
   128
 43
0.0
 10
0.375604824725464
 20
0.5174810284851645
 10
0.3757410091183715
 20
0.5174463915412701
 10
0.3764771503600883
 20
0.5173806855335101
 10
0.3768344688040273
 20
0.5174810284851645
  0
LWPOLYLINE
  5
ED2
330
1F
100
AcDbEntity
  8
0
  6
Continuous
 62
     7
100
AcDbPolyline
 90
        4
 70
   128
 43
0.0
 10
0.4223741499072275
 20
0.5174810284851645
 10
0.4224503413534961
 20
0.5174463915412701
 10
0.4230726764513975
 20
0.5173806855335101
 10
0.4236037939857908
 20
0.5174810284851645
  0
LWPOLYLINE
  5
ED3
330
1F
100
AcDbEntity
  8
0
  6
Continuous
 62
     7
100
AcDbPolyline
 90
        4
 70
   128
 43
0.0
 10
0.375604824725464
 20
0.5174810284851645
 10
0.3757410091183715
 20
0.5174463915412701
 10
0.3764771503600883
 20
0.5173806855335101
 10
0.3768344688040273
 20
0.5174810284851645
  0
LWPOLYLINE
  5
ED4
330
1F
100
AcDbEntity
  8
0
  6
Continuous
 62
     7
100
AcDbPolyline
 90
        4
 70
   128
 43
0.0
 10
0.4223741499072275
 20
0.5174810284851645
 10
0.4224503413534961
 20
0.5174463915412701
 10
0.4230726764513975
 20
0.5173806855335101
 10
0.4236037939857908
 20
0.5174810284851645
  0
LINE
  5
ED5
330
1F
100
AcDbEntity
  8
0
  6
Continuous
 62
     7
100
AcDbLine
 10
0.3561048150431247
 20
0.5404807611101603
 30
0.0
 11
0.3619326422292204
 21
0.5404807611101603
 31
0.0
  0
LINE
  5
ED6
330
1F
100
AcDbEntity
  8
0
  6
Continuous
 62
     7
100
AcDbLine
 10
0.3619326422292204
 20
0.5404807611101603
 30
0.0
 11
0.4431038036681301
 21
0.5404807611101603
 31
0.0
  0
LINE
  5
ED7
330
1F
100
AcDbEntity
  8
0
  6
Continuous
 62
     7
100
AcDbLine
 10
0.3943543703868784
 20
0.520480993610164
 30
0.0
 11
0.4048542483243764
 21
0.520480993610164
 31
0.0
  0
LINE
  5
ED8
330
1F
100
AcDbEntity
  8
0
  6
Continuous
 62
     7
100
AcDbLine
 10
0.3926043907306251
 20
0.6234797962351593
 30
0.0
 11
0.4066042279806226
 21
0.6234797962351593
 31
0.0
  0
LINE
  5
ED9
330
1F
100
AcDbEntity
  8
0
  6
Continuous
 62
     7
100
AcDbLine
 10
0.3446049487306269
 20
1.225472797985162
 30
0.0
 11
0.4546036699806209
 21
1.225472797985162
 31
0.0
  0
LINE
  5
EDA
330
1F
100
AcDbEntity
  8
0
  6
Continuous
 62
     7
100
AcDbLine
 10
0.3446049487306269
 20
1.223472821235163
 30
0.0
 11
0.4546036699806209
 21
1.223472821235163
 31
0.0
  0
LINE
  5
EDB
330
1F
100
AcDbEntity
  8
0
  6
Continuous
 62
     7
100
AcDbLine
 10
0.3664046953056257
 20
1.255472449235171
 30
0.0
 11
0.432803923405622
 21
1.255472449235171
 31
0.0
  0
LINE
  5
EDD
330
1F
100
AcDbEntity
  8
0
  6
Continuous
 62
     7
100
AcDbLine
 10
0.4066042279806226
 20
0.5569805692976644
 30
0.0
 11
0.3926043907306251
 21
0.5569805692976644
 31
0.0
  0
LINE
  5
EE0
330
1F
100
AcDbEntity
  8
0
  6
Continuous
 62
     7
100
AcDbLine
 10
0.4064693777803896
 20
0.2169045227276598
 30
0.0
 11
0.4066042279806226
 21
0.2219044646026589
 31
0.0
  0
LINE
  5
EE1
330
1F
100
AcDbEntity
  8
0
  6
Continuous
 62
     7
100
AcDbLine
 10
0.3926043907306251
 20
0.2219044646026589
 30
0.0
 11
0.3927175250845849
 21
0.2169045227276598
 31
0.0
  0
LINE
  5
EE2
330
1F
100
AcDbEntity
  8
0
  6
Continuous
 62
     7
100
AcDbLine
 10
0.6858941739177382
 20
0.2169045227276598
 30
0.0
 11
0.6858941739177382
 21
0.2219044646026589
 31
0.0
  0
LINE
  5
EE3
330
1F
100
AcDbEntity
  8
0
  6
Continuous
 62
     7
100
AcDbLine
 10
0.6718943366677408
 20
0.2219044646026589
 30
0.0
 11
0.6718943366677408
 21
0.2169045227276598
 31
0.0
  0
LINE
  5
EE4
330
1F
100
AcDbEntity
  8
0
  6
Continuous
 62
     7
100
AcDbLine
 10
0.1273142820435069
 20
0.2169045227276598
 30
0.0
 11
0.1273142820435069
 21
0.2219044646026589
 31
0.0
  0
LINE
  5
EE5
330
1F
100
AcDbEntity
  8
0
  6
Continuous
 62
     7
100
AcDbLine
 10
0.1133144447935095
 20
0.2219044646026589
 30
0.0
 11
0.1133144447935095
 21
0.2169045227276598
 31
0.0
  0
LINE
  5
EE6
330
1F
100
AcDbEntity
  8
0
  6
Continuous
 62
     7
100
AcDbLine
 10
0.7221005602931214
 20
0.2169045227276598
 30
0.0
 11
0.4064693777803896
 21
0.2169045227276598
 31
0.0
  0
LINE
  5
EE7
330
1F
100
AcDbEntity
  8
0
  6
Continuous
 62
     7
100
AcDbLine
 10
0.3927175250845849
 20
0.2169045227276598
 30
0.0
 11
0.0771080584181263
 21
0.2169045227276598
 31
0.0
  0
ARC
  5
EE8
330
1F
100
AcDbEntity
  8
0
  6
Continuous
 62
     7
100
AcDbCircle
 10
0.7221005602931214
 20
0.2069046389776616
 30
0.0
 40
0.00999988375
100
AcDbArc
 50
316.3141037190505
 51
89.99999999999949
  0
ARC
  5
EE9
330
1F
100
AcDbEntity
  8
0
  6
Continuous
 62
     7
100
AcDbCircle
 10
0.0771080584181263
 20
0.2069046389776616
 30
0.0
 40
0.0099998837499999
100
AcDbArc
 50
90.0
 51
223.6858962809487
  0
LINE
  5
EEA
330
1F
100
AcDbEntity
  8
0
  6
Continuous
 62
     7
100
AcDbLine
 10
0.4471037571681293
 20
0.5174810284851645
 30
0.0
 11
0.4471037571681293
 21
0.520480993610164
 31
0.0
  0
LINE
  5
EEB
330
1F
100
AcDbEntity
  8
0
  6
Continuous
 62
     7
100
AcDbLine
 10
0.3521048615431255
 20
0.520480993610164
 30
0.0
 11
0.3521048615431255
 21
0.5174810284851645
 31
0.0
  0
LINE
  5
EEC
330
1F
100
AcDbEntity
  8
0
  6
Continuous
 62
     7
100
AcDbLine
 10
0.6850018486898719
 20
0.2317172328372976
 30
0.0
 11
0.6709174464019512
 21
0.2479804997419137
 31
0.0
  0
LINE
  5
EED
330
1F
100
AcDbEntity
  8
0
  6
Continuous
 62
     7
100
AcDbLine
 10
0.6610904843434682
 20
0.2394701009572486
 30
0.0
 11
0.6696635987796
 21
0.2295707211022631
 31
0.0
  0
LINE
  5
EEE
330
1F
100
AcDbEntity
  8
0
  6
Continuous
 62
     7
100
AcDbLine
 10
0.1295450199316548
 20
0.2295707211022631
 30
0.0
 11
0.1381181343677866
 21
0.2394701009572486
 31
0.0
  0
LINE
  5
EEF
330
1F
100
AcDbEntity
  8
0
  6
Continuous
 62
     7
100
AcDbLine
 10
0.1282911723093108
 20
0.2479804997419137
 30
0.0
 11
0.1142067700213829
 21
0.2317172328372976
 31
0.0
  0
LINE
  5
EF0
330
1F
100
AcDbEntity
  8
0
  6
Continuous
 62
     7
100
AcDbLine
 10
0.4061042337931227
 20
0.2274620334449651
 30
0.0
 11
0.4061042337931227
 21
0.2437253003495812
 31
0.0
  0
LINE
  5
EF1
330
1F
100
AcDbEntity
  8
0
  6
Continuous
 62
     7
100
AcDbLine
 10
0.393104384918125
 20
0.2437253003495812
 30
0.0
 11
0.393104384918125
 21
0.2274620334449651
 31
0.0
  0
LINE
  5
EF2
330
1F
100
AcDbEntity
  8
0
  6
Continuous
 62
     7
100
AcDbLine
 10
0.1381181343677866
 20
0.2394701009572486
 30
0.0
 11
0.3781653385793433
 21
0.5166527368967735
 31
0.0
  0
LINE
  5
EF3
330
1F
100
AcDbEntity
  8
0
  6
Continuous
 62
     7
100
AcDbLine
 10
0.3616854765342978
 20
0.5174810284851645
 30
0.0
 11
0.1282911723093108
 21
0.2479804997419137
 31
0.0
  0
LINE
  5
EF4
330
1F
100
AcDbEntity
  8
0
  6
Continuous
 62
     7
100
AcDbLine
 10
0.6709174464019441
 20
0.2479804997419137
 30
0.0
 11
0.437523142176957
 21
0.5174810284851645
 31
0.0
  0
LINE
  5
EF5
330
1F
100
AcDbEntity
  8
0
  6
Continuous
 62
     7
100
AcDbLine
 10
0.4210432801319044
 20
0.5166527368967735
 30
0.0
 11
0.6610904843434682
 21
0.2394701009572486
 31
0.0
  0
LINE
  5
EF6
330
1F
100
AcDbEntity
  8
0
  6
Continuous
 62
     7
100
AcDbLine
 10
0.4061042337931227
 20
0.2437253003495812
 30
0.0
 11
0.4061042337931227
 21
0.5174810284851645
 31
0.0
  0
LINE
  5
EF7
330
1F
100
AcDbEntity
  8
0
  6
Continuous
 62
     7
100
AcDbLine
 10
0.3931043849181179
 20
0.5174810284851645
 30
0.0
 11
0.393104384918125
 21
0.2437253003495812
 31
0.0
  0
ARC
  5
EF8
330
1F
100
AcDbEntity
  8
0
  6
Continuous
 62
     7
100
AcDbCircle
 10
0.3561048150431247
 20
0.5384807843601607
 30
0.0
 40
0.0019999767500002
100
AcDbArc
 50
90.0
 51
180.0
  0
ARC
  5
EF9
330
1F
100
AcDbEntity
  8
0
  6
Continuous
 62
     7
100
AcDbCircle
 10
0.4431038036681301
 20
0.5384807843601607
 30
0.0
 40
0.0019999767499996
100
AcDbArc
 50
0.0
 51
90.0
  0
LINE
  5
EFA
330
1F
100
AcDbEntity
  8
0
  6
Continuous
 62
     7
100
AcDbLine
 10
0.4451037804181226
 20
0.520480993610164
 30
0.0
 11
0.4451037804181226
 21
0.5384807843601607
 31
0.0
  0
LINE
  5
EFB
330
1F
100
AcDbEntity
  8
0
  6
Continuous
 62
     7
100
AcDbLine
 10
0.3541048382931251
 20
0.5384807843601607
 30
0.0
 11
0.3541048382931251
 21
0.520480993610164
 31
0.0
  0
LINE
  5
EFC
330
1F
100
AcDbEntity
  8
0
  6
Continuous
 62
     7
100
AcDbLine
 10
0.3926043907306251
 20
1.223472821235163
 30
0.0
 11
0.3926043907306251
 21
0.6234797962351593
 31
0.0
  0
LINE
  5
EFD
330
1F
100
AcDbEntity
  8
0
  6
Continuous
 62
     7
100
AcDbLine
 10
0.4066042279806226
 20
0.6234797962351593
 30
0.0
 11
0.4066042279806226
 21
1.223472821235163
 31
0.0
  0
LINE
  5
EFE
330
1F
100
AcDbEntity
  8
0
  6
Continuous
 62
     7
100
AcDbLine
 10
0.3446049487306269
 20
1.225472797985162
 30
0.0
 11
0.3446049487306269
 21
1.223472821235163
 31
0.0
  0
LINE
  5
EFF
330
1F
100
AcDbEntity
  8
0
  6
Continuous
 62
     7
100
AcDbLine
 10
0.4546036699806209
 20
1.223472821235163
 30
0.0
 11
0.4546036699806209
 21
1.225472797985162
 31
0.0
  0
ARC
  5
F00
330
1F
100
AcDbEntity
  8
0
  6
Continuous
 62
     7
100
AcDbCircle
 10
0.432803923405622
 20
1.253672470160168
 30
0.0
 40
0.0017999790750002
100
AcDbArc
 50
0.0
 51
90.00000000000901
  0
ARC
  5
F01
330
1F
100
AcDbEntity
  8
0
  6
Continuous
 62
     7
100
AcDbCircle
 10
0.3664046953056257
 20
1.253672470160168
 30
0.0
 40
0.0017999790750002
100
AcDbArc
 50
90.0
 51
180.0
  0
LINE
  5
F02
330
1F
100
AcDbEntity
  8
0
  6
Continuous
 62
     7
100
AcDbLine
 10
0.4346039024806245
 20
1.225472797985162
 30
0.0
 11
0.4346039024806245
 21
1.253672470160168
 31
0.0
  0
LINE
  5
F03
330
1F
100
AcDbEntity
  8
0
  6
Continuous
 62
     7
100
AcDbLine
 10
0.3646047162306232
 20
1.253672470160168
 30
0.0
 11
0.3646047162306232
 21
1.225472797985162
 31
0.0
  0
LINE
  5
F04
330
1F
100
AcDbEntity
  8
0
  6
Continuous
 62
     7
100
AcDbLine
 10
0.3946043674806248
 20
0.6234797962351593
 30
0.0
 11
0.3946043674806248
 21
0.5569805692976644
 31
0.0
  0
LINE
  5
F05
330
1F
100
AcDbEntity
  8
0
  6
Continuous
 62
     7
100
AcDbLine
 10
0.4046042512306229
 20
0.5569805692976644
 30
0.0
 11
0.4046042512306229
 21
0.6234797962351593
 31
0.0
  0
LINE
  5
F06
330
1F
100
AcDbEntity
  8
0
  6
Continuous
 62
     7
100
AcDbLine
 10
0.405804237280627
 20
0.5404807611101603
 30
0.0
 11
0.4066042279806226
 21
0.541280751810163
 31
0.0
  0
LINE
  5
F07
330
1F
100
AcDbEntity
  8
0
  6
Continuous
 62
     7
100
AcDbLine
 10
0.3926043907306251
 20
0.541280751810163
 30
0.0
 11
0.3934043814306207
 21
0.5404807611101603
 31
0.0
  0
LINE
  5
F08
330
1F
100
AcDbEntity
  8
0
  6
Continuous
 62
     7
100
AcDbLine
 10
0.3926043907306251
 20
0.5569805692976644
 30
0.0
 11
0.3926043907306251
 21
0.541280751810163
 31
0.0
  0
LINE
  5
F09
330
1F
100
AcDbEntity
  8
0
  6
Continuous
 62
     7
100
AcDbLine
 10
0.4066042279806226
 20
0.541280751810163
 30
0.0
 11
0.4066042279806226
 21
0.5569805692976644
 31
0.0
  0
SOLID
  5
F0A
330
1F
100
AcDbEntity
  8
0
 62
   252
100
AcDbTrace
 10
0.2743644874116669
 20
1.092010646564816
 30
0.0
 11
0.2663645804116683
 21
1.044011204564811
 31
0.0
 12
0.2823643944116654
 22
1.044011204564811
 32
0.0
 13
0.2823643944116654
 23
1.044011204564811
 33
0.0
  0
SOLID
  5
F0B
330
1F
100
AcDbEntity
  8
0
 62
   252
100
AcDbTrace
 10
0.2743644874116669
 20
0.7180994347053513
 30
0.0
 11
0.2823643944116654
 21
0.7660988767053425
 31
0.0
 12
0.2663645804116683
 22
0.7660988767053425
 32
0.0
 13
0.2663645804116683
 23
0.7660988767053425
 33
0.0
  0
LINE
  5
F0C
330
1F
100
AcDbEntity
  8
0
 62
   252
100
AcDbLine
 10
0.2743644874116669
 20
1.044011204564811
 30
0.0
 11
0.2743644874116669
 21
0.7660988767053425
 31
0.0
  0
POINT
  5
FCF
330
1F
100
AcDbEntity
  8
S&C_cotas
  6
Continuous
100
AcDbPoint
 10
0.4346039024806245
 20
1.244094308088393
 30
0.0
  0
POINT
  5
FD0
330
1F
100
AcDbEntity
  8
S&C_cotas
  6
Continuous
100
AcDbPoint
 10
0.3646047162306232
 20
1.242680088974666
 30
0.0
  0
LINE
  5
FD1
330
1F
100
AcDbEntity
  8
S&C_cotas
  6
Continuous
370
    -2
100
AcDbLine
 10
0.4346039024806245
 20
1.280558754119943
 30
0.0
 11
0.4346039024806245
 21
1.307759835202542
 31
0.0
  0
LINE
  5
FD2
330
1F
100
AcDbEntity
  8
S&C_cotas
  6
Continuous
370
    -2
100
AcDbLine
 10
0.3646047162306232
 20
1.280558754119943
 30
0.0
 11
0.3646047162306232
 21
1.307759835202542
 31
0.0
  0
MTEXT
  5
FD3
330
1F
100
AcDbEntity
  8
S&C_cotas
  6
Continuous
100
AcDbMText
 10
0.3962792409266152
 20
1.329893448322155
 30
0.0
 40
0.02
 41
0.0
 71
     5
 72
     1
  1
%%C7 cm / 2,7"
  7
ARIAL
 73
     1
 44
1.0
  0
LINE
  5
1041
330
1F
100
AcDbEntity
  8
S&C_cotas
370
    -2
100
AcDbLine
 10
0.0006046582383098
 20
-0.03810686398956
 30
0.0
 11
0.0006046582383098
 21
-0.1304553799920347
 31
0.0
  0
LINE
  5
1042
330
1F
100
AcDbEntity
  8
S&C_cotas
370
    -2
100
AcDbLine
 10
0.7998132769495575
 20
-0.03810686398956
 30
0.0
 11
0.7998132769495575
 21
-0.1304553799920347
 31
0.0
  0
MTEXT
  5
1043
330
1F
100
AcDbEntity
  8
S&C_cotas
100
AcDbMText
 10
0.4049339696537212
 20
-0.104960121866384
 30
0.0
 40
0.02
 41
0.0
 71
     5
 72
     1
  1
%%c80 cm / 31,5"
  7
ARIAL
 73
     1
 44
1.0
  0
POINT
  5
108F
330
1F
100
AcDbEntity
  8
S&C_cotas
  6
Continuous
100
AcDbPoint
 10
0.3996043093556239
 20
1.255472449235171
 30
0.0
  0
POINT
  5
1090
330
1F
100
AcDbEntity
  8
S&C_cotas
  6
Continuous
100
AcDbPoint
 10
0.3797349518848208
 20
0.5404807611101603
 30
0.0
  0
LINE
  5
1091
330
1F
100
AcDbEntity
  8
S&C_cotas
  6
Continuous
370
    -2
100
AcDbLine
 10
-0.0920841440028016
 20
1.255472449235171
 30
0.0
 11
-0.1912411709154818
 21
1.255472449235171
 31
0.0
  0
MTEXT
  5
1093
330
1F
100
AcDbEntity
  8
S&C_cotas
  6
Continuous
100
AcDbMText
 10
-0.1924684887042411
 20
0.9036364112626143
 30
0.0
 40
0.02
 41
0.3196187245366519
 71
     5
 72
     1
  1
{Mín. 40 / Máx. 75 cm  Mín. 82 / Máx.152 cm Mín.156 / Máx. 302 cm }
  7
ARIAL
 11
6.123031769111886E-17
 21
1.0
 31
0.0
 73
     1
 44
1.0
1001
ACAD
1000
ACAD_MTEXT_DEFINED_HEIGHT_BEGIN
1070
    46
1040
0.10096
1000
ACAD_MTEXT_DEFINED_HEIGHT_END
  0
POINT
  5
10A9
330
1F
100
AcDbEntity
  8
S&C_cotas
  6
Continuous
100
AcDbPoint
 10
0.0
 20
0.1999976750000059
 30
0.0
  0
LINE
  5
10AA
330
1F
100
AcDbEntity
  8
S&C_cotas
  6
Continuous
370
    -2
100
AcDbLine
 10
-0.0920841440028016
 20
0.5408029451172747
 30
0.0
 11
-0.1912411709154817
 21
0.5408029451172747
 31
0.0
  0
LINE
  5
10AB
330
1F
100
AcDbEntity
  8
S&C_cotas
  6
Continuous
370
    -2
100
AcDbLine
 10
-0.0920841440028016
 20
0.1999976750000059
 30
0.0
 11
-0.1912411709154817
 21
0.1999976750000059
 31
0.0
  0
MTEXT
  5
10AC
330
1F
100
AcDbEntity
  8
S&C_cotas
  6
Continuous
100
AcDbMText
 10
-0.1732411709154817
 20
0.3704003100586403
 30
0.0
 40
0.02
 41
0.0
 71
     5
 72
     1
  1
34 cm / 13,4"
  7
ARIAL
 11
6.123031769111886E-17
 21
1.0
 31
0.0
 73
     1
 44
1.0
  0
POINT
  5
10AD
330
1F
100
AcDbEntity
  8
S&C_cotas
  6
Continuous
100
AcDbPoint
 10
0.0
 20
0.1999976750000059
 30
0.0
  0
POINT
  5
10AE
330
1F
100
AcDbEntity
  8
S&C_cotas
  6
Continuous
100
AcDbPoint
 10
0.0
 20
0.0
 30
0.0
  0
LINE
  5
10AF
330
1F
100
AcDbEntity
  8
S&C_cotas
  6
Continuous
370
    -2
100
AcDbLine
 10
-0.0920841440028016
 20
0.1999976750000059
 30
0.0
 11
-0.1912411709154817
 21
0.1999976750000059
 31
0.0
  0
LINE
  5
10B0
330
1F
100
AcDbEntity
  8
S&C_cotas
  6
Continuous
370
    -2
100
AcDbLine
 10
-0.0920841440028016
 20
0.0
 30
0.0
 11
-0.1912411709154817
 21
0.0
 31
0.0
  0
MTEXT
  5
10B1
330
1F
100
AcDbEntity
  8
S&C_cotas
  6
Continuous
100
AcDbMText
 10
-0.1732411709154817
 20
0.0999988375000029
 30
0.0
 40
0.02
 41
0.0
 71
     5
 72
     1
  1
20 cm / 7,9"
  7
ARIAL
 11
6.123031769111886E-17
 21
1.0
 31
0.0
 73
     1
 44
1.0
  0
MTEXT
  5
1106
330
1F
100
AcDbEntity
  8
S&C_cotas
  6
Continuous
100
AcDbMText
 10
0.9106441071606173
 20
0.7418042169803883
 30
0.0
 40
0.02
 41
0.0
 71
     1
 72
     1
  1
{Con tubo telescópico /\PWith telescopic support /\PAvec support télescopique         }
  7
ARIAL
 11
6.123233995736766E-17
 21
1.0
 31
0.0
 73
     1
 44
1.0
1001
ACAD
1000
ACAD_MTEXT_DEFINED_HEIGHT_BEGIN
1070
    46
1040
0.10076
1000
ACAD_MTEXT_DEFINED_HEIGHT_END
  0
LINE
  5
113C
330
1F
100
AcDbEntity
  8
S&C_cotas
  6
HIDDEN
370
    -2
100
AcDbLine
 10
0.0001226959449025
 20
0.540624617679929
 30
0.0
 11
0.7992086187112477
 21
0.5403369045403916
 31
0.0
  0
MTEXT
  5
1140
330
1F
100
AcDbEntity
  8
S&C_cotas
  6
Continuous
100
AcDbMText
 10
0.9106441071606172
 20
0.1193753916547683
 30
0.0
 40
0.02
 41
0.0
 71
     1
 72
     1
  1
{Sin tubo telescópico /\PWithout telescopic support /\PSans support télescopique}
  7
ARIAL
 11
6.123233995736766E-17
 21
1.0
 31
0.0
 73
     1
 44
1.0
1001
ACAD
1000
ACAD_MTEXT_DEFINED_HEIGHT_BEGIN
1070
    46
1040
0.101
1000
ACAD_MTEXT_DEFINED_HEIGHT_END
  0
MTEXT
  5
119B
330
1F
100
AcDbEntity
  8
S&C_cotas
  6
Continuous
100
AcDbMText
 10
-0.0683875307478096
 20
0.9028415526867756
 30
0.0
 40
0.02
 41
0.3125500240257851
 71
     5
 72
     1
  1
Mín.15,75 / Máx. 29,5 " Mín. 32,3 / Máx.59,8" Mín. 61,4 / Máx.118,9" 
  7
ARIAL
 11
6.123031769111886E-17
 21
1.0
 31
0.0
 73
     1
 44
1.0
  0
ENDSEC
  0
SECTION
  2
OBJECTS
  0
DICTIONARY
  5
C
330
0
100
AcDbDictionary
281
     1
  3
ACAD_GROUP
350
D
  3
ACAD_IMAGE_VARS
350
1105
  3
ACAD_LAYOUT
350
1A
  3
ACAD_MLINESTYLE
350
17
  3
ACAD_PLOTSETTINGS
350
19
  3
ACAD_PLOTSTYLENAME
350
E
  3
ACAD_SCALELIST
350
99
  3
AcDbVariableDictionary
350
59
  3
APPDATA
350
1104
  3
DWGPROPS
350
11EB
  0
DICTIONARY
  5
D
102
{ACAD_REACTORS
330
C
102
}
330
C
100
AcDbDictionary
281
     1
  0
RASTERVARIABLES
  5
1105
102
{ACAD_REACTORS
330
C
102
}
330
C
100
AcDbRasterVariables
 90
        0
 70
     1
 71
     1
 72
     5
  0
DICTIONARY
  5
1A
102
{ACAD_REACTORS
330
C
102
}
330
C
100
AcDbDictionary
281
     1
  3
Layout1
350
74
  3
Layout2
350
BF
  3
Model
350
22
  0
DICTIONARY
  5
17
102
{ACAD_REACTORS
330
C
102
}
330
C
100
AcDbDictionary
281
     1
  3
Standard
350
18
  0
DICTIONARY
  5
19
102
{ACAD_REACTORS
330
C
102
}
330
C
100
AcDbDictionary
281
     1
  0
ACDBDICTIONARYWDFLT
  5
E
102
{ACAD_REACTORS
330
C
102
}
330
C
100
AcDbDictionary
281
     1
  3
Normal
350
F
100
AcDbDictionaryWithDefault
340
F
  0
DICTIONARY
  5
99
102
{ACAD_REACTORS
330
C
102
}
330
C
100
AcDbDictionary
281
     1
  3
A0
350
1D9
  3
A1
350
1DA
  3
A2
350
1DB
  3
A3
350
1DC
  3
A4
350
1DD
  3
A5
350
1DE
  3
A6
350
1DF
  3
A7
350
1E0
  3
A8
350
1E1
  3
A9
350
1E2
  3
B0
350
1E3
  3
B1
350
1E4
  3
B2
350
1E5
  3
B3
350
1E6
  3
B4
350
1E7
  3
B5
350
1E8
  3
B6
350
1E9
  3
B7
350
1EA
  3
B8
350
1EB
  3
B9
350
1EC
  3
C0
350
1ED
  3
C1
350
1EE
  3
C2
350
1EF
  3
C3
350
1F0
  3
C4
350
1F1
  3
C5
350
1F2
  3
C6
350
1F3
  3
C7
350
1F4
  3
C8
350
1F5
  3
C9
350
1F6
  3
D0
350
1F7
  3
D1
350
1F8
  3
D2
350
1F9
  0
DICTIONARY
  5
59
102
{ACAD_REACTORS
330
C
102
}
330
C
100
AcDbDictionary
281
     1
  3
CANNOSCALE
350
11EC
  3
DIMASSOC
350
1D7
  3
HIDETEXT
350
1D8
  0
DICTIONARY
  5
1104
102
{ACAD_REACTORS
330
C
102
}
330
C
100
AcDbDictionary
281
     1
  0
XRECORD
  5
11EB
102
{ACAD_REACTORS
330
C
102
}
330
C
100
AcDbXrecord
280
     1
  1
DWGPROPS COOKIE
  2

  3

  4

  6

  7

  8
andreu.capdevila
  9

300
=
301
=
302
=
303
=
304
=
305
=
306
=
307
=
308
=
309
=
 40
0.0
 41
2453353.717125822
 42
2456386.701361273
  1

 90
        0
  0
LAYOUT
  5
74
102
{ACAD_REACTORS
330
1A
102
}
330
1A
100
AcDbPlotSettings
  1

  2
\\ADSCCNDC1\hq601xrx1
  4

  6

 40
0.0
 41
0.0
 42
0.0
 43
0.0
 44
0.0
 45
0.0
 46
0.0
 47
0.0
 48
0.0
 49
0.0
140
0.0
141
0.0
142
1.0
143
1.0
 70
   688
 72
     0
 73
     0
 74
     5
  7

 75
    16
147
1.0
148
0.0
149
0.0
100
AcDbLayout
  1
Layout1
 70
     1
 71
     1
 10
0.0
 20
0.0
 11
12.0
 21
9.0
 12
0.0
 22
0.0
 32
0.0
 14
0.0
 24
0.0
 34
0.0
 15
0.0
 25
0.0
 35
0.0
146
0.0
 13
0.0
 23
0.0
 33
0.0
 16
1.0
 26
0.0
 36
0.0
 17
0.0
 27
1.0
 37
0.0
 76
     0
330
73
  0
LAYOUT
  5
BF
102
{ACAD_REACTORS
330
1A
102
}
330
1A
100
AcDbPlotSettings
  1

  2
none_device
  4
Sun_Hi-Res_(1280.00_x_1600.00_Pixels)
  6

 40
0.0
 41
0.0
 42
0.0
 43
0.0
 44
1280.0
 45
1600.0
 46
0.0
 47
0.0
 48
0.0
 49
0.0
140
0.0
141
0.0
142
1.0
143
1.0
 70
   544
 72
     2
 73
     0
 74
     5
  7

 75
    16
147
1.0
148
0.0
149
0.0
100
AcDbLayout
  1
Layout2
 70
     1
 71
     2
 10
0.0
 20
0.0
 11
12.0
 21
9.0
 12
0.0
 22
0.0
 32
0.0
 14
1.000000000000000E+20
 24
1.000000000000000E+20
 34
1.000000000000000E+20
 15
-1.000000000000000E+20
 25
-1.000000000000000E+20
 35
-1.000000000000000E+20
146
0.0
 13
0.0
 23
0.0
 33
0.0
 16
1.0
 26
0.0
 36
0.0
 17
0.0
 27
1.0
 37
0.0
 76
     0
330
BE
  0
LAYOUT
  5
22
102
{ACAD_REACTORS
330
1A
102
}
330
1A
100
AcDbPlotSettings
  1

  2
none_device
  4
Sun_Hi-Res_(1280.00_x_1600.00_Pixels)
  6

 40
6.349999904632568
 41
6.349999904632568
 42
6.350006103515625
 43
6.350006103515625
 44
1280.0
 45
1600.0
 46
0.0
 47
0.0
 48
0.0
 49
0.0
140
0.0
141
0.0
142
1.0
143
0.0035333982603712
 70
 11952
 72
     2
 73
     0
 74
     0
  7

 75
     0
147
0.28088241027059
148
0.1311165230791651
149
0.096403374003771
100
AcDbLayout
  1
Model
 70
     1
 71
     0
 10
0.0
 20
0.0
 11
12.0
 21
9.0
 12
0.0
 22
0.0
 32
0.0
 14
-0.2174339858313526
 24
-1.017155882906057
 34
0.0
 15
1.114617545045427
 25
1.596954155473857
 35
0.0
146
0.0
 13
0.0
 23
0.0
 33
0.0
 16
1.0
 26
0.0
 36
0.0
 17
0.0
 27
1.0
 37
0.0
 76
     0
330
1F
331
97
  0
MLINESTYLE
  5
18
102
{ACAD_REACTORS
330
17
102
}
330
17
100
AcDbMlineStyle
  2
Standard
 70
     0
  3

 62
   256
 51
90.0
 52
90.0
 71
     2
 49
0.5
 62
   256
  6
BYLAYER
 49
-0.5
 62
   256
  6
BYLAYER
  0
ACDBPLACEHOLDER
  5
F
102
{ACAD_REACTORS
330
E
102
}
330
E
  0
SCALE
  5
1D9
102
{ACAD_REACTORS
330
99
102
}
330
99
100
AcDbScale
 70
     0
300
1:1
140
1.0
141
1.0
290
     1
  0
SCALE
  5
1DA
102
{ACAD_REACTORS
330
99
102
}
330
99
100
AcDbScale
 70
     0
300
1:2
140
1.0
141
2.0
290
     0
  0
SCALE
  5
1DB
102
{ACAD_REACTORS
330
99
102
}
330
99
100
AcDbScale
 70
     0
300
1:4
140
1.0
141
4.0
290
     0
  0
SCALE
  5
1DC
102
{ACAD_REACTORS
330
99
102
}
330
99
100
AcDbScale
 70
     0
300
1:5
140
1.0
141
5.0
290
     0
  0
SCALE
  5
1DD
102
{ACAD_REACTORS
330
99
102
}
330
99
100
AcDbScale
 70
     0
300
1:8
140
1.0
141
8.0
290
     0
  0
SCALE
  5
1DE
102
{ACAD_REACTORS
330
99
102
}
330
99
100
AcDbScale
 70
     0
300
1:10
140
1.0
141
10.0
290
     0
  0
SCALE
  5
1DF
102
{ACAD_REACTORS
330
99
102
}
330
99
100
AcDbScale
 70
     0
300
1:16
140
1.0
141
16.0
290
     0
  0
SCALE
  5
1E0
102
{ACAD_REACTORS
330
99
102
}
330
99
100
AcDbScale
 70
     0
300
1:20
140
1.0
141
20.0
290
     0
  0
SCALE
  5
1E1
102
{ACAD_REACTORS
330
99
102
}
330
99
100
AcDbScale
 70
     0
300
1:30
140
1.0
141
30.0
290
     0
  0
SCALE
  5
1E2
102
{ACAD_REACTORS
330
99
102
}
330
99
100
AcDbScale
 70
     0
300
1:40
140
1.0
141
40.0
290
     0
  0
SCALE
  5
1E3
102
{ACAD_REACTORS
330
99
102
}
330
99
100
AcDbScale
 70
     0
300
1:50
140
1.0
141
50.0
290
     0
  0
SCALE
  5
1E4
102
{ACAD_REACTORS
330
99
102
}
330
99
100
AcDbScale
 70
     0
300
1:100
140
1.0
141
100.0
290
     0
  0
SCALE
  5
1E5
102
{ACAD_REACTORS
330
99
102
}
330
99
100
AcDbScale
 70
     0
300
2:1
140
2.0
141
1.0
290
     0
  0
SCALE
  5
1E6
102
{ACAD_REACTORS
330
99
102
}
330
99
100
AcDbScale
 70
     0
300
4:1
140
4.0
141
1.0
290
     0
  0
SCALE
  5
1E7
102
{ACAD_REACTORS
330
99
102
}
330
99
100
AcDbScale
 70
     0
300
8:1
140
8.0
141
1.0
290
     0
  0
SCALE
  5
1E8
102
{ACAD_REACTORS
330
99
102
}
330
99
100
AcDbScale
 70
     0
300
10:1
140
10.0
141
1.0
290
     0
  0
SCALE
  5
1E9
102
{ACAD_REACTORS
330
99
102
}
330
99
100
AcDbScale
 70
     0
300
100:1
140
100.0
141
1.0
290
     0
  0
SCALE
  5
1EA
102
{ACAD_REACTORS
330
99
102
}
330
99
100
AcDbScale
 70
     0
300
1/128" = 1'-0"
140
0.0078125
141
12.0
290
     0
  0
SCALE
  5
1EB
102
{ACAD_REACTORS
330
99
102
}
330
99
100
AcDbScale
 70
     0
300
1/64" = 1'-0"
140
0.015625
141
12.0
290
     0
  0
SCALE
  5
1EC
102
{ACAD_REACTORS
330
99
102
}
330
99
100
AcDbScale
 70
     0
300
1/32" = 1'-0"
140
0.03125
141
12.0
290
     0
  0
SCALE
  5
1ED
102
{ACAD_REACTORS
330
99
102
}
330
99
100
AcDbScale
 70
     0
300
1/16" = 1'-0"
140
0.0625
141
12.0
290
     0
  0
SCALE
  5
1EE
102
{ACAD_REACTORS
330
99
102
}
330
99
100
AcDbScale
 70
     0
300
3/32" = 1'-0"
140
0.09375
141
12.0
290
     0
  0
SCALE
  5
1EF
102
{ACAD_REACTORS
330
99
102
}
330
99
100
AcDbScale
 70
     0
300
1/8" = 1'-0"
140
0.125
141
12.0
290
     0
  0
SCALE
  5
1F0
102
{ACAD_REACTORS
330
99
102
}
330
99
100
AcDbScale
 70
     0
300
3/16" = 1'-0"
140
0.1875
141
12.0
290
     0
  0
SCALE
  5
1F1
102
{ACAD_REACTORS
330
99
102
}
330
99
100
AcDbScale
 70
     0
300
1/4" = 1'-0"
140
0.25
141
12.0
290
     0
  0
SCALE
  5
1F2
102
{ACAD_REACTORS
330
99
102
}
330
99
100
AcDbScale
 70
     0
300
3/8" = 1'-0"
140
0.375
141
12.0
290
     0
  0
SCALE
  5
1F3
102
{ACAD_REACTORS
330
99
102
}
330
99
100
AcDbScale
 70
     0
300
1/2" = 1'-0"
140
0.5
141
12.0
290
     0
  0
SCALE
  5
1F4
102
{ACAD_REACTORS
330
99
102
}
330
99
100
AcDbScale
 70
     0
300
3/4" = 1'-0"
140
0.75
141
12.0
290
     0
  0
SCALE
  5
1F5
102
{ACAD_REACTORS
330
99
102
}
330
99
100
AcDbScale
 70
     0
300
1" = 1'-0"
140
1.0
141
12.0
290
     0
  0
SCALE
  5
1F6
102
{ACAD_REACTORS
330
99
102
}
330
99
100
AcDbScale
 70
     0
300
1-1/2" = 1'-0"
140
1.5
141
12.0
290
     0
  0
SCALE
  5
1F7
102
{ACAD_REACTORS
330
99
102
}
330
99
100
AcDbScale
 70
     0
300
3" = 1'-0"
140
3.0
141
12.0
290
     0
  0
SCALE
  5
1F8
102
{ACAD_REACTORS
330
99
102
}
330
99
100
AcDbScale
 70
     0
300
6" = 1'-0"
140
6.0
141
12.0
290
     0
  0
SCALE
  5
1F9
102
{ACAD_REACTORS
330
99
102
}
330
99
100
AcDbScale
 70
     0
300
1'-0" = 1'-0"
140
12.0
141
12.0
290
     0
  0
DICTIONARYVAR
  5
11EC
102
{ACAD_REACTORS
330
59
102
}
330
59
100
DictionaryVariables
280
     0
  1
1:1
  0
DICTIONARYVAR
  5
1D7
102
{ACAD_REACTORS
330
59
102
}
330
59
100
DictionaryVariables
280
     0
  1
2
  0
DICTIONARYVAR
  5
1D8
102
{ACAD_REACTORS
330
59
102
}
330
59
100
DictionaryVariables
280
     0
  1
1
  0
ENDSEC
  0
EOF
