  0
SECTION
  2
HEADER
  9
$ACADVER
  1
AC1018
  9
$ACADMAINTVER
 70
     0
  9
$DWGCODEPAGE
  3
ANSI_1252
  9
$LASTSAVEDBY
  1
Andrea.Obradors
  9
$INSBASE
 10
0.0
 20
0.0
 30
0.0
  9
$EXTMIN
 10
1.280382807382465
 20
-1.067399605476886
 30
0.0
  9
$EXTMAX
 10
88.0854366253206
 20
151.4904126867742
 30
0.0
  9
$LIMMIN
 10
0.0
 20
0.0
  9
$LIMMAX
 10
12.0
 20
9.0
  9
$ORTHOMODE
 70
     1
  9
$REGENMODE
 70
     1
  9
$FILLMODE
 70
     1
  9
$QTEXTMODE
 70
     0
  9
$MIRRTEXT
 70
     0
  9
$LTSCALE
 40
1.0
  9
$ATTMODE
 70
     1
  9
$TEXTSIZE
 40
0.2
  9
$TRACEWID
 40
0.05
  9
$TEXTSTYLE
  7
Standard
  9
$CLAYER
  8
0
  9
$CELTYPE
  6
ByLayer
  9
$CECOLOR
 62
   256
  9
$CELTSCALE
 40
1.0
  9
$DISPSILH
 70
     0
  9
$DIMSCALE
 40
1.0
  9
$DIMASZ
 40
0.1
  9
$DIMEXO
 40
0.02
  9
$DIMDLI
 40
0.38
  9
$DIMRND
 40
0.0
  9
$DIMDLE
 40
0.0
  9
$DIMEXE
 40
0.018
  9
$DIMTP
 40
0.0
  9
$DIMTM
 40
0.0
  9
$DIMTXT
 40
0.2
  9
$DIMCEN
 40
0.0
  9
$DIMTSZ
 40
0.0
  9
$DIMTOL
 70
     0
  9
$DIMLIM
 70
     0
  9
$DIMTIH
 70
     0
  9
$DIMTOH
 70
     0
  9
$DIMSE1
 70
     0
  9
$DIMSE2
 70
     0
  9
$DIMTAD
 70
     0
  9
$DIMZIN
 70
     0
  9
$DIMBLK
  1
NONE
  9
$DIMASO
 70
     1
  9
$DIMSHO
 70
     1
  9
$DIMPOST
  1

  9
$DIMAPOST
  1

  9
$DIMALT
 70
     0
  9
$DIMALTD
 70
     2
  9
$DIMALTF
 40
25.4
  9
$DIMLFAC
 40
1.0
  9
$DIMTOFL
 70
     0
  9
$DIMTVP
 40
0.0
  9
$DIMTIX
 70
     0
  9
$DIMSOXD
 70
     0
  9
$DIMSAH
 70
     0
  9
$DIMBLK1
  1

  9
$DIMBLK2
  1

  9
$DIMSTYLE
  2
S&C_cotas
  9
$DIMCLRD
 70
   256
  9
$DIMCLRE
 70
   256
  9
$DIMCLRT
 70
   256
  9
$DIMTFAC
 40
1.0
  9
$DIMGAP
 40
0.0
  9
$DIMJUST
 70
     0
  9
$DIMSD1
 70
     1
  9
$DIMSD2
 70
     1
  9
$DIMTOLJ
 70
     1
  9
$DIMTZIN
 70
     0
  9
$DIMALTZ
 70
     0
  9
$DIMALTTZ
 70
     0
  9
$DIMUPT
 70
     0
  9
$DIMDEC
 70
     0
  9
$DIMTDEC
 70
     0
  9
$DIMALTU
 70
     2
  9
$DIMALTTD
 70
     2
  9
$DIMTXSTY
  7
ARIAL
  9
$DIMAUNIT
 70
     0
  9
$DIMADEC
 70
     2
  9
$DIMALTRND
 40
0.0
  9
$DIMAZIN
 70
     0
  9
$DIMDSEP
 70
    46
  9
$DIMATFIT
 70
     3
  9
$DIMFRAC
 70
     0
  9
$DIMLDRBLK
  1
NONE
  9
$DIMLUNIT
 70
     2
  9
$DIMLWD
 70
    -2
  9
$DIMLWE
 70
    -2
  9
$DIMTMOVE
 70
     0
  9
$LUNITS
 70
     2
  9
$LUPREC
 70
     4
  9
$SKETCHINC
 40
0.1
  9
$FILLETRAD
 40
0.0
  9
$AUNITS
 70
     0
  9
$AUPREC
 70
     0
  9
$MENU
  1
.
  9
$ELEVATION
 40
0.0
  9
$PELEVATION
 40
0.0
  9
$THICKNESS
 40
0.0
  9
$LIMCHECK
 70
     0
  9
$CHAMFERA
 40
0.0
  9
$CHAMFERB
 40
0.0
  9
$CHAMFERC
 40
0.0
  9
$CHAMFERD
 40
0.0
  9
$SKPOLY
 70
     0
  9
$TDCREATE
 40
2453353.758792488
  9
$TDUCREATE
 40
2453353.717125822
  9
$TDUPDATE
 40
2456625.662151644
  9
$TDUUPDATE
 40
2456625.620484977
  9
$TDINDWG
 40
0.1684627546
  9
$TDUSRTIMER
 40
2456625.620303495
  9
$USRTIMER
 70
     1
  9
$ANGBASE
 50
0.0
  9
$ANGDIR
 70
     0
  9
$PDMODE
 70
     0
  9
$PDSIZE
 40
0.0
  9
$PLINEWID
 40
0.0
  9
$SPLFRAME
 70
     0
  9
$SPLINETYPE
 70
     6
  9
$SPLINESEGS
 70
     8
  9
$HANDSEED
  5
1C24
  9
$SURFTAB1
 70
     6
  9
$SURFTAB2
 70
     6
  9
$SURFTYPE
 70
     6
  9
$SURFU
 70
     6
  9
$SURFV
 70
     6
  9
$UCSBASE
  2

  9
$UCSNAME
  2

  9
$UCSORG
 10
0.0
 20
0.0
 30
0.0
  9
$UCSXDIR
 10
1.0
 20
0.0
 30
0.0
  9
$UCSYDIR
 10
0.0
 20
1.0
 30
0.0
  9
$UCSORTHOREF
  2

  9
$UCSORTHOVIEW
 70
     0
  9
$UCSORGTOP
 10
0.0
 20
0.0
 30
0.0
  9
$UCSORGBOTTOM
 10
0.0
 20
0.0
 30
0.0
  9
$UCSORGLEFT
 10
0.0
 20
0.0
 30
0.0
  9
$UCSORGRIGHT
 10
0.0
 20
0.0
 30
0.0
  9
$UCSORGFRONT
 10
0.0
 20
0.0
 30
0.0
  9
$UCSORGBACK
 10
0.0
 20
0.0
 30
0.0
  9
$PUCSBASE
  2

  9
$PUCSNAME
  2

  9
$PUCSORG
 10
0.0
 20
0.0
 30
0.0
  9
$PUCSXDIR
 10
1.0
 20
0.0
 30
0.0
  9
$PUCSYDIR
 10
0.0
 20
1.0
 30
0.0
  9
$PUCSORTHOREF
  2

  9
$PUCSORTHOVIEW
 70
     0
  9
$PUCSORGTOP
 10
0.0
 20
0.0
 30
0.0
  9
$PUCSORGBOTTOM
 10
0.0
 20
0.0
 30
0.0
  9
$PUCSORGLEFT
 10
0.0
 20
0.0
 30
0.0
  9
$PUCSORGRIGHT
 10
0.0
 20
0.0
 30
0.0
  9
$PUCSORGFRONT
 10
0.0
 20
0.0
 30
0.0
  9
$PUCSORGBACK
 10
0.0
 20
0.0
 30
0.0
  9
$USERI1
 70
     0
  9
$USERI2
 70
     0
  9
$USERI3
 70
     0
  9
$USERI4
 70
     0
  9
$USERI5
 70
     0
  9
$USERR1
 40
0.0
  9
$USERR2
 40
0.0
  9
$USERR3
 40
0.0
  9
$USERR4
 40
0.0
  9
$USERR5
 40
0.0
  9
$WORLDVIEW
 70
     1
  9
$SHADEDGE
 70
     3
  9
$SHADEDIF
 70
    70
  9
$TILEMODE
 70
     1
  9
$MAXACTVP
 70
    64
  9
$PINSBASE
 10
0.0
 20
0.0
 30
0.0
  9
$PLIMCHECK
 70
     0
  9
$PEXTMIN
 10
0.0
 20
0.0
 30
0.0
  9
$PEXTMAX
 10
0.0
 20
0.0
 30
0.0
  9
$PLIMMIN
 10
0.0
 20
0.0
  9
$PLIMMAX
 10
0.0
 20
0.0
  9
$UNITMODE
 70
     0
  9
$VISRETAIN
 70
     1
  9
$PLINEGEN
 70
     0
  9
$PSLTSCALE
 70
     1
  9
$TREEDEPTH
 70
  3020
  9
$CMLSTYLE
  2
Standard
  9
$CMLJUST
 70
     0
  9
$CMLSCALE
 40
1.0
  9
$PROXYGRAPHICS
 70
     1
  9
$MEASUREMENT
 70
     0
  9
$CELWEIGHT
370
    -1
  9
$ENDCAPS
280
     0
  9
$JOINSTYLE
280
     0
  9
$LWDISPLAY
290
     0
  9
$INSUNITS
 70
     1
  9
$HYPERLINKBASE
  1

  9
$STYLESHEET
  1

  9
$XEDIT
290
     0
  9
$CEPSNTYPE
380
     0
  9
$PSTYLEMODE
290
     0
  9
$FINGERPRINTGUID
  2
{8BAE0D3F-6380-4E3D-B0D1-267E31F469C1}
  9
$VERSIONGUID
  2
{8E70422B-437C-47F9-9F9C-DB5263B1F70E}
  9
$EXTNAMES
290
     1
  9
$PSVPSCALE
 40
0.0
  9
$OLESTARTUP
290
     0
  9
$SORTENTS
280
   127
  9
$INDEXCTL
280
     0
  9
$HIDETEXT
280
     1
  9
$XCLIPFRAME
290
     0
  9
$HALOGAP
280
     0
  9
$OBSCOLOR
 70
   257
  9
$OBSLTYPE
280
     0
  9
$INTERSECTIONDISPLAY
280
     0
  9
$INTERSECTIONCOLOR
 70
   257
  9
$DIMASSOC
280
     2
  9
$PROJECTNAME
  1

  0
ENDSEC
  0
SECTION
  2
CLASSES
  0
CLASS
  1
ACDBDICTIONARYWDFLT
  2
AcDbDictionaryWithDefault
  3
ObjectDBX Classes
 90
        0
 91
        5
280
     0
281
     0
  0
CLASS
  1
ACDBPLACEHOLDER
  2
AcDbPlaceHolder
  3
ObjectDBX Classes
 90
        0
 91
        1
280
     0
281
     0
  0
CLASS
  1
LAYOUT
  2
AcDbLayout
  3
ObjectDBX Classes
 90
        0
 91
        1
280
     0
281
     0
  0
CLASS
  1
DICTIONARYVAR
  2
AcDbDictionaryVar
  3
ObjectDBX Classes
 90
        0
 91
        5
280
     0
281
     0
  0
CLASS
  1
TABLESTYLE
  2
AcDbTableStyle
  3
ObjectDBX Classes
 90
     4095
 91
        5
280
     0
281
     0
  0
CLASS
  1
SCALE
  2
AcDbScale
  3
ObjectDBX Classes
 90
     1153
 91
        5
280
     0
281
     0
  0
CLASS
  1
MATERIAL
  2
AcDbMaterial
  3
ObjectDBX Classes
 90
     1153
 91
        5
280
     0
281
     0
  0
CLASS
  1
MLEADERSTYLE
  2
AcDbMLeaderStyle
  3
ACDB_MLEADERSTYLE_CLASS
 90
     4095
 91
        4
280
     0
281
     0
  0
CLASS
  1
VISUALSTYLE
  2
AcDbVisualStyle
  3
ObjectDBX Classes
 90
     4095
 91
        5
280
     0
281
     0
  0
CLASS
  1
CELLSTYLEMAP
  2
AcDbCellStyleMap
  3
ObjectDBX Classes
 90
     1152
 91
        5
280
     0
281
     0
  0
CLASS
  1
RASTERVARIABLES
  2
AcDbRasterVariables
  3
ISM
 90
        0
 91
        5
280
     0
281
     0
  0
ENDSEC
  0
SECTION
  2
TABLES
  0
TABLE
  2
VPORT
  5
8
330
0
100
AcDbSymbolTable
 70
     1
  0
VPORT
  5
97
330
8
100
AcDbSymbolTableRecord
100
AcDbViewportTableRecord
  2
*Active
 70
     0
 10
0.0
 20
0.0
 11
1.0
 21
1.0
 12
1.998469697029942
 22
-0.0825647306471967
 13
0.0
 23
0.0
 14
0.5
 24
0.5
 15
0.5
 25
0.5
 16
0.0
 26
0.0
 36
1.0
 17
0.0
 27
0.0
 37
0.0
 40
1.212573320663899
 41
1.987745098039216
 42
50.0
 43
0.0
 44
0.0
 50
0.0
 51
0.0
 71
    16
 72
  1000
 73
     1
 74
     1
 75
     0
 76
     0
 77
     0
 78
     0
281
     0
 65
     0
110
0.0
120
0.0
130
0.0
111
1.0
121
0.0
131
0.0
112
0.0
122
1.0
132
0.0
 79
     0
146
0.0
  0
ENDTAB
  0
TABLE
  2
LTYPE
  5
5
330
0
100
AcDbSymbolTable
 70
     2
  0
LTYPE
  5
14
330
5
100
AcDbSymbolTableRecord
100
AcDbLinetypeTableRecord
  2
ByBlock
 70
     0
  3

 72
    65
 73
     0
 40
0.0
  0
LTYPE
  5
15
330
5
100
AcDbSymbolTableRecord
100
AcDbLinetypeTableRecord
  2
ByLayer
 70
     0
  3

 72
    65
 73
     0
 40
0.0
  0
LTYPE
  5
16
330
5
100
AcDbSymbolTableRecord
100
AcDbLinetypeTableRecord
  2
Continuous
 70
     0
  3
Solid line
 72
    65
 73
     0
 40
0.0
  0
LTYPE
  5
1B71
330
5
100
AcDbSymbolTableRecord
100
AcDbLinetypeTableRecord
  2
CENTERX2
 70
     0
  3
Center (2x) ________  __  ________  __  _____
 72
    65
 73
     4
 40
2.032
 49
1.27
 74
     4
 75
     0
340
0
 46
1.0
 50
0.0
 44
0.0
 45
0.0
 49
-0.254
 74
     4
 75
     0
340
0
 46
1.0
 50
0.0
 44
0.0
 45
0.0
 49
0.254
 74
     4
 75
     0
340
0
 46
1.0
 50
0.0
 44
0.0
 45
0.0
 49
-0.254
 74
     4
 75
     0
340
0
 46
1.0
 50
0.0
 44
0.0
 45
0.0
  0
ENDTAB
  0
TABLE
  2
LAYER
  5
2
330
0
100
AcDbSymbolTable
 70
     5
  0
LAYER
  5
10
102
{ACAD_XDICTIONARY
360
1B72
102
}
330
2
100
AcDbSymbolTableRecord
100
AcDbLayerTableRecord
  2
0
 70
     0
 62
     7
  6
Continuous
370
    -3
390
F
  0
LAYER
  5
C1
102
{ACAD_XDICTIONARY
360
1B73
102
}
330
2
100
AcDbSymbolTableRecord
100
AcDbLayerTableRecord
  2
S&C_cotas
 70
     0
 62
   251
  6
Continuous
370
    -3
390
F
  0
LAYER
  5
CC
330
2
100
AcDbSymbolTableRecord
100
AcDbLayerTableRecord
  2
DEFPOINTS
 70
     0
 62
     7
  6
Continuous
290
     0
370
    -3
390
F
  0
LAYER
  5
100
102
{ACAD_XDICTIONARY
360
1B74
102
}
330
2
100
AcDbSymbolTableRecord
100
AcDbLayerTableRecord
  2
S&C_vistas
 70
     0
 62
   255
  6
Continuous
370
    -3
390
F
  0
LAYER
  5
EE3
102
{ACAD_XDICTIONARY
360
1B75
102
}
330
2
100
AcDbSymbolTableRecord
100
AcDbLayerTableRecord
  2
SLD-0
 70
     0
 62
   179
  6
Continuous
370
    -3
390
F
  0
ENDTAB
  0
TABLE
  2
STYLE
  5
3
330
0
100
AcDbSymbolTable
 70
     3
  0
STYLE
  5
11
330
3
100
AcDbSymbolTableRecord
100
AcDbTextStyleTableRecord
  2
Standard
 70
     0
 40
0.0
 41
1.0
 50
0.0
 71
     0
 42
0.2
  3
txt
  4

  0
STYLE
  5
C2
330
3
100
AcDbSymbolTableRecord
100
AcDbTextStyleTableRecord
  2
ARIAL
 70
     0
 40
0.0
 41
1.0
 50
0.0
 71
     0
 42
15.0
  3
ARIAL.TTF
  4

1001
ACAD
1000
Arial
1071
       34
  0
STYLE
  5
B7F
330
3
100
AcDbSymbolTableRecord
100
AcDbTextStyleTableRecord
  2
SLDTEXTSTYLE0
 70
     0
 40
0.0
 41
0.605
 50
0.0
 71
     0
 42
0.2
  3
TXT
  4

  0
ENDTAB
  0
TABLE
  2
VIEW
  5
6
330
0
100
AcDbSymbolTable
 70
     0
  0
ENDTAB
  0
TABLE
  2
UCS
  5
7
330
0
100
AcDbSymbolTable
 70
     0
  0
ENDTAB
  0
TABLE
  2
APPID
  5
9
330
0
100
AcDbSymbolTable
 70
     5
  0
APPID
  5
12
330
9
100
AcDbSymbolTableRecord
100
AcDbRegAppTableRecord
  2
ACAD
 70
     0
  0
APPID
  5
1B6D
330
9
100
AcDbSymbolTableRecord
100
AcDbRegAppTableRecord
  2
ACAD_DSTYLE_DIMJAG
 70
     0
  0
APPID
  5
1B6E
330
9
100
AcDbSymbolTableRecord
100
AcDbRegAppTableRecord
  2
ACAD_DSTYLE_DIMTALN
 70
     0
  0
APPID
  5
1B6F
330
9
100
AcDbSymbolTableRecord
100
AcDbRegAppTableRecord
  2
ACAD_EXEMPT_FROM_CAD_STANDARDS
 70
     0
  0
APPID
  5
1B70
330
9
100
AcDbSymbolTableRecord
100
AcDbRegAppTableRecord
  2
ACAD_MLEADERVER
 70
     0
  0
ENDTAB
  0
TABLE
  2
DIMSTYLE
  5
A
330
0
100
AcDbSymbolTable
 70
     4
100
AcDbDimStyleTable
  0
DIMSTYLE
105
27
330
A
100
AcDbSymbolTableRecord
100
AcDbDimStyleTableRecord
  2
Standard
 70
     0
178
     0
340
11
  0
DIMSTYLE
105
C5
330
A
100
AcDbSymbolTableRecord
100
AcDbDimStyleTableRecord
  2
S&C_cotas
 70
     0
 41
0.1
 42
0.02
 44
0.018
 73
     0
 74
     0
140
0.02
141
0.0
147
0.0
176
   256
177
   256
271
     0
178
   256
179
     2
271
     0
272
     0
281
     1
282
     1
340
C2
341
1B76
342
1B76
1001
ACAD_DSTYLE_DIMJAG
1070
   388
1040
1.5
1001
ACAD_DSTYLE_DIMTALN
1070
   392
1070
     0
  0
DIMSTYLE
105
5C6
330
A
100
AcDbSymbolTableRecord
100
AcDbDimStyleTableRecord
  2
Tarifa ACAD
 70
     0
 41
0.5
 42
1.0
 45
0.5
 73
     0
 74
     0
 75
     1
 76
     1
 77
     1
140
1.5
141
1.0
147
1.0
172
     1
178
     0
271
     0
272
     0
340
11
341
1B79
342
1B79
  0
DIMSTYLE
105
EE4
330
A
100
AcDbSymbolTableRecord
100
AcDbDimStyleTableRecord
  2
SLDDIMSTYLE0
 70
     0
 41
3.0
 44
0.0
 45
0.000000001
 73
     0
 74
     0
 77
     1
 78
    12
 79
     3
140
3.0
144
0.1
147
0.75
173
     1
178
     0
271
     2
272
     2
284
    12
340
B7F
  0
ENDTAB
  0
TABLE
  2
BLOCK_RECORD
  5
1
330
0
100
AcDbSymbolTable
 70
     5
  0
BLOCK_RECORD
  5
1F
330
1
100
AcDbSymbolTableRecord
100
AcDbBlockTableRecord
  2
*Model_Space
340
22
  0
BLOCK_RECORD
  5
73
330
1
100
AcDbSymbolTableRecord
100
AcDbBlockTableRecord
  2
*Paper_Space
340
74
  0
BLOCK_RECORD
  5
1B76
330
1
100
AcDbSymbolTableRecord
100
AcDbBlockTableRecord
  2
_NONE
340
0
  0
BLOCK_RECORD
  5
1B79
330
1
100
AcDbSymbolTableRecord
100
AcDbBlockTableRecord
  2
_DOT
340
0
102
{BLKREFS
331
12AB
331
12AC
331
12B5
331
12B6
102
}
  0
BLOCK_RECORD
  5
BE
330
1
100
AcDbSymbolTableRecord
100
AcDbBlockTableRecord
  2
*Paper_Space2
340
BF
  0
BLOCK_RECORD
  5
12AF
330
1
100
AcDbSymbolTableRecord
100
AcDbBlockTableRecord
  2
*D3
340
0
  0
BLOCK_RECORD
  5
12B9
330
1
100
AcDbSymbolTableRecord
100
AcDbBlockTableRecord
  2
*D4
340
0
  0
ENDTAB
  0
ENDSEC
  0
SECTION
  2
BLOCKS
  0
BLOCK
  5
20
330
1F
100
AcDbEntity
  8
0
100
AcDbBlockBegin
  2
*Model_Space
 70
     0
 10
0.0
 20
0.0
 30
0.0
  3
*Model_Space
  1

  0
ENDBLK
  5
21
330
1F
100
AcDbEntity
  8
0
100
AcDbBlockEnd
  0
BLOCK
  5
75
330
73
100
AcDbEntity
 67
     1
  8
0
100
AcDbBlockBegin
  2
*Paper_Space
 70
     0
 10
0.0
 20
0.0
 30
0.0
  3
*Paper_Space
  1

  0
ENDBLK
  5
76
330
73
100
AcDbEntity
 67
     1
  8
0
100
AcDbBlockEnd
  0
BLOCK
  5
1B77
330
1B76
100
AcDbEntity
  8
0
100
AcDbBlockBegin
  2
_NONE
 70
     0
 10
0.0
 20
0.0
 30
0.0
  3
_NONE
  1

  0
ENDBLK
  5
1B78
330
1B76
100
AcDbEntity
  8
0
100
AcDbBlockEnd
  0
BLOCK
  5
1B7A
330
1B79
100
AcDbEntity
  8
0
100
AcDbBlockBegin
  2
_DOT
 70
     0
 10
0.0
 20
0.0
 30
0.0
  3
_DOT
  1

  0
LWPOLYLINE
  5
C13
330
1B79
100
AcDbEntity
  8
0
  6
ByBlock
 62
     0
100
AcDbPolyline
 90
        2
 70
     1
 43
0.5
 10
-0.25
 20
0.0
 42
1.0
 10
0.25
 20
0.0
 42
1.0
  0
LINE
  5
C14
330
1B79
100
AcDbEntity
  8
0
  6
ByBlock
 62
     0
370
    -2
100
AcDbLine
 10
-0.5
 20
0.0
 30
0.0
 11
-1.0
 21
0.0
 31
0.0
  0
ENDBLK
  5
1B7B
330
1B79
100
AcDbEntity
  8
0
100
AcDbBlockEnd
  0
BLOCK
  5
1B81
330
BE
100
AcDbEntity
  8
0
100
AcDbBlockBegin
  2
*Paper_Space2
 70
     0
 10
0.0
 20
0.0
 30
0.0
  3
*Paper_Space2
  1

  0
ENDBLK
  5
1B82
330
BE
100
AcDbEntity
  8
0
100
AcDbBlockEnd
  0
BLOCK
  5
1B83
330
12AF
100
AcDbEntity
  8
0
100
AcDbBlockBegin
  2
*D3
 70
     1
 10
0.0
 20
0.0
 30
0.0
  3
*D3
  1

  0
POINT
  5
12A8
330
12AF
100
AcDbEntity
  8
DEFPOINTS
  6
ByBlock
 62
     0
100
AcDbPoint
 10
61.48883240986351
 20
142.567520973426
 30
0.0
  0
POINT
  5
12A9
330
12AF
100
AcDbEntity
  8
DEFPOINTS
  6
ByBlock
 62
     0
100
AcDbPoint
 10
87.8354366253206
 20
142.567520973426
 30
0.0
  0
LINE
  5
12AA
330
12AF
100
AcDbEntity
  8
0
  6
ByBlock
 62
     0
370
    -2
100
AcDbLine
 10
61.98883240986351
 20
148.9904126867742
 30
0.0
 11
87.3354366253206
 21
148.9904126867742
 31
0.0
  0
INSERT
  5
12AB
330
12AF
100
AcDbEntity
  8
0
  6
ByBlock
370
    -2
100
AcDbBlockReference
  2
_DOT
 10
61.48883240986351
 20
148.9904126867742
 30
0.0
 41
0.5
 42
0.5
 43
0.5
 50
180.0
  0
INSERT
  5
12AC
330
12AF
100
AcDbEntity
  8
0
  6
ByBlock
370
    -2
100
AcDbBlockReference
  2
_DOT
 10
87.8354366253206
 20
148.9904126867742
 30
0.0
 41
0.5
 42
0.5
 43
0.5
  0
MTEXT
  5
12AD
330
12AF
100
AcDbEntity
  8
0
  6
ByBlock
 62
     0
100
AcDbMText
 10
74.66213451759205
 20
150.7404126867742
 30
0.0
 40
1.5
 41
0.0
 71
     5
 72
     1
  1
%%C25
 73
     1
 44
1.0
  0
ENDBLK
  5
1B84
330
12AF
100
AcDbEntity
  8
0
100
AcDbBlockEnd
  0
BLOCK
  5
1B85
330
12B9
100
AcDbEntity
  8
0
100
AcDbBlockBegin
  2
*D4
 70
     1
 10
0.0
 20
0.0
 30
0.0
  3
*D4
  1

  0
POINT
  5
12B2
330
12B9
100
AcDbEntity
  8
DEFPOINTS
  6
ByBlock
 62
     0
100
AcDbPoint
 10
61.48883240986351
 20
132.239652120967
 30
0.0
  0
POINT
  5
12B3
330
12B9
100
AcDbEntity
  8
DEFPOINTS
  6
ByBlock
 62
     0
100
AcDbPoint
 10
61.48883240986351
 20
142.567520973426
 30
0.0
  0
LINE
  5
12B4
330
12B9
100
AcDbEntity
  8
0
  6
ByBlock
 62
     0
370
    -2
100
AcDbLine
 10
52.01288338347705
 20
132.739652120967
 30
0.0
 11
52.01288338347705
 21
142.067520973426
 31
0.0
  0
INSERT
  5
12B5
330
12B9
100
AcDbEntity
  8
0
  6
ByBlock
370
    -2
100
AcDbBlockReference
  2
_DOT
 10
52.01288338347705
 20
132.239652120967
 30
0.0
 41
0.5
 42
0.5
 43
0.5
 50
270.0
  0
INSERT
  5
12B6
330
12B9
100
AcDbEntity
  8
0
  6
ByBlock
370
    -2
100
AcDbBlockReference
  2
_DOT
 10
52.01288338347705
 20
142.567520973426
 30
0.0
 41
0.5
 42
0.5
 43
0.5
 50
90.0
  0
MTEXT
  5
12B7
330
12B9
100
AcDbEntity
  8
0
  6
ByBlock
 62
     0
100
AcDbMText
 10
50.26288338347705
 20
137.4035865471965
 30
0.0
 40
1.5
 41
0.0
 71
     5
 72
     1
  1
10
 11
6.123031769111886E-17
 21
1.0
 31
0.0
 73
     1
 44
1.0
  0
ENDBLK
  5
1B86
330
12B9
100
AcDbEntity
  8
0
100
AcDbBlockEnd
  0
ENDSEC
  0
SECTION
  2
ENTITIES
  0
MTEXT
  5
15DA
330
1F
100
AcDbEntity
  8
S&C_cotas
  6
Continuous
 62
   251
100
AcDbMText
 10
1.304214597574882
 20
0.3751221978759514
 30
0.0
 40
0.02
 41
0.0
 71
     5
 72
     1
  1
Min.50/ Máx.500 cm / Min.19.7/Máx.196.8"
  7
ARIAL
 11
0.0
 21
1.0
 31
0.0
 73
     1
 44
1.0
  0
CIRCLE
  5
15DB
330
1F
100
AcDbEntity
  8
0
  6
Continuous
 62
     7
370
    15
100
AcDbCircle
 10
1.998706038964205
 20
-1.048438931319484
 30
0.0
 40
0.0068469101123583
  0
CIRCLE
  5
15DC
330
1F
100
AcDbEntity
  8
0
  6
Continuous
 62
     7
370
    15
100
AcDbCircle
 10
1.998706038964205
 20
-1.048438931319484
 30
0.0
 40
0.0057935393258504
  0
CIRCLE
  5
15DD
330
1F
100
AcDbEntity
  8
0
  6
Continuous
 62
     7
370
    15
100
AcDbCircle
 10
1.998706038964205
 20
-1.048438931319484
 30
0.0
 40
0.0005793539325794
  0
CIRCLE
  5
15DE
330
1F
100
AcDbEntity
  8
0
  6
Continuous
 62
     7
370
    15
100
AcDbCircle
 10
1.62213094765568
 20
-0.3961917403083344
 30
0.0
 40
0.0068469101123583
  0
CIRCLE
  5
15DF
330
1F
100
AcDbEntity
  8
0
  6
Continuous
 62
     7
370
    15
100
AcDbCircle
 10
1.62213094765568
 20
-0.3961917403083344
 30
0.0
 40
0.0057935393258504
  0
CIRCLE
  5
15E0
330
1F
100
AcDbEntity
  8
0
  6
Continuous
 62
     7
370
    15
100
AcDbCircle
 10
1.62213094765568
 20
-0.3961917403083344
 30
0.0
 40
0.0005793539325794
  0
CIRCLE
  5
15E1
330
1F
100
AcDbEntity
  8
0
  6
Continuous
 62
     7
370
    15
100
AcDbCircle
 10
2.3752811302727
 20
-0.3961917403083344
 30
0.0
 40
0.0068469101123583
  0
CIRCLE
  5
15E2
330
1F
100
AcDbEntity
  8
0
  6
Continuous
 62
     7
370
    15
100
AcDbCircle
 10
2.3752811302727
 20
-0.3961917403083344
 30
0.0
 40
0.0005793539325794
  0
CIRCLE
  5
15E3
330
1F
100
AcDbEntity
  8
0
  6
Continuous
 62
     7
370
    15
100
AcDbCircle
 10
2.3752811302727
 20
-0.3961917403083344
 30
0.0
 40
0.0057935393258504
  0
LINE
  5
15E4
330
1F
100
AcDbEntity
  8
0
  6
Continuous
 62
     7
370
    15
100
AcDbLine
 10
1.616074076509226
 20
-0.399384602301384
 30
0.0
 11
1.611936211106926
 21
-0.396995609396243
 31
0.0
  0
LINE
  5
15E5
330
1F
100
AcDbEntity
  8
0
  6
Continuous
 62
     7
370
    15
100
AcDbLine
 10
1.638391341068033
 20
-0.4122694858006646
 30
0.0
 11
1.622394282643744
 21
-0.4030335869344436
 31
0.0
  0
LINE
  5
15E6
330
1F
100
AcDbEntity
  8
0
  6
Continuous
 62
     7
370
    15
100
AcDbLine
 10
1.62186760403134
 20
-0.3893498945602142
 30
0.0
 11
1.617729750432776
 21
-0.3869609049282345
 31
0.0
  0
LINE
  5
15E7
330
1F
100
AcDbEntity
  8
0
  6
Continuous
 62
     7
370
    15
100
AcDbLine
 10
1.644184880393883
 20
-0.4022347813326543
 30
0.0
 11
1.628187841558746
 21
-0.3929988791932739
 31
0.0
  0
LINE
  5
15E8
330
1F
100
AcDbEntity
  8
0
  6
Continuous
 62
     7
370
    15
100
AcDbLine
 10
1.626287723756268
 20
-0.4016324749066544
 30
0.0
 11
1.634306532407184
 21
-0.4062621369778945
 31
0.0
  0
LINE
  5
15E9
330
1F
100
AcDbEntity
  8
0
  6
Continuous
 62
     7
370
    15
100
AcDbLine
 10
1.613707656962962
 20
-0.3943693706951935
 30
0.0
 11
1.615340769856889
 21
-0.3953122373793032
 31
0.0
  0
ARC
  5
15EA
330
1F
100
AcDbEntity
  8
0
  6
Continuous
 62
     7
370
    15
100
AcDbCircle
 10
1.628516668680764
 20
-0.3998785380611635
 30
0.0
 40
0.0158005617977354
100
AcDbArc
 50
140.4059317732435
 51
159.5940682269913
  0
LINE
  5
15EB
330
1F
100
AcDbEntity
  8
0
  6
Continuous
 62
     7
370
    15
100
AcDbLine
 10
1.617974194311731
 20
-0.3907510065878934
 30
0.0
 11
1.616341083929232
 21
-0.3898081413914843
 31
0.0
  0
LINE
  5
15EC
330
1F
100
AcDbEntity
  8
0
  6
Continuous
 62
     7
370
    15
100
AcDbLine
 10
1.636939959373481
 20
-0.4017009076743043
 30
0.0
 11
1.628921148211138
 21
-0.3970712441153529
 31
0.0
  0
ARC
  5
15ED
330
1F
100
AcDbEntity
  8
0
  6
Continuous
 62
     7
370
    15
100
AcDbCircle
 10
1.62213094765568
 20
-0.3961917403083344
 30
0.0
 40
0.0158005617977354
100
AcDbArc
 50
320.4059317732434
 51
339.5940682269911
  0
LINE
  5
15EE
330
1F
100
AcDbEntity
  8
0
  6
Continuous
 62
     7
370
    15
100
AcDbLine
 10
1.610779529704505
 20
-0.3926788156342736
 30
0.0
 11
1.613412956670803
 21
-0.3881175863305735
 31
0.0
  0
ARC
  5
15EF
330
1F
100
AcDbEntity
  8
0
  6
Continuous
 62
     7
370
    15
100
AcDbCircle
 10
1.613516267286716
 20
-0.3942588718140941
 30
0.0
 40
0.003160112359571
100
AcDbArc
 50
149.9999999993048
 51
239.9999999992826
  0
ARC
  5
15F0
330
1F
100
AcDbEntity
  8
0
  6
Continuous
 62
     7
370
    15
100
AcDbCircle
 10
1.616149694252986
 20
-0.3896976425103832
 30
0.0
 40
0.0031601123595322
100
AcDbArc
 50
59.99999999949346
 51
149.9999999995298
  0
LWPOLYLINE
  5
15F1
330
1F
100
AcDbEntity
  8
0
  6
Continuous
 62
     7
370
    15
100
AcDbPolyline
 90
        8
 70
   128
 43
0.0
 10
1.642040333533604
 20
-0.4143762325886128
 10
1.642021968689566
 20
-0.4143656374862441
 10
1.641824821304117
 20
-0.4142518068462741
 10
1.641422489951882
 20
-0.4140195151139234
 10
1.640838958805208
 20
-0.4136826222529144
 10
1.640109168157156
 20
-0.4132612825023335
 10
1.639276722739968
 20
-0.4127806572680038
 10
1.638391348900431
 20
-0.4122694867462033
  0
LWPOLYLINE
  5
15F2
330
1F
100
AcDbEntity
  8
0
  6
Continuous
 62
     7
370
    15
100
AcDbPolyline
 90
        8
 70
   128
 43
0.0
 10
1.647833861055691
 20
-0.4043415248474431
 10
1.647815527604568
 20
-0.4043309297450742
 10
1.647618380219119
 20
-0.4042171148013842
 10
1.647216017473969
 20
-0.4039848073727536
 10
1.64663251772021
 20
-0.4036479145117429
 10
1.645902727072215
 20
-0.4032265747611637
 10
1.645070250262055
 20
-0.4027459495268342
 10
1.644184876422575
 20
-0.4022347790050335
  0
LINE
  5
15F3
330
1F
100
AcDbEntity
  8
0
  6
Continuous
 62
     7
370
    15
100
AcDbLine
 10
2.375544478615385
 20
-0.3893498945602142
 30
0.0
 11
2.379682327495605
 21
-0.3869609049282345
 31
0.0
  0
LINE
  5
15F4
330
1F
100
AcDbEntity
  8
0
  6
Continuous
 62
     7
370
    15
100
AcDbLine
 10
2.353227197534498
 20
-0.4022347813326543
 30
0.0
 11
2.369224241087981
 21
-0.3929988791932739
 31
0.0
  0
LINE
  5
15F5
330
1F
100
AcDbEntity
  8
0
  6
Continuous
 62
     7
370
    15
100
AcDbLine
 10
2.381338006137472
 20
-0.399384602301384
 30
0.0
 11
2.385475866821427
 21
-0.396995609396243
 31
0.0
  0
LINE
  5
15F6
330
1F
100
AcDbEntity
  8
0
  6
Continuous
 62
     7
370
    15
100
AcDbLine
 10
2.359020736860349
 20
-0.4122694858006646
 30
0.0
 11
2.375017800003011
 21
-0.4030335869344436
 31
0.0
  0
LINE
  5
15F7
330
1F
100
AcDbEntity
  8
0
  6
Continuous
 62
     7
370
    15
100
AcDbLine
 10
2.368490934435616
 20
-0.3970712441153529
 30
0.0
 11
2.360472118554898
 21
-0.4017009076743043
 31
0.0
  0
LINE
  5
15F8
330
1F
100
AcDbEntity
  8
0
  6
Continuous
 62
     7
370
    15
100
AcDbLine
 10
2.381070993999121
 20
-0.3898081413914843
 30
0.0
 11
2.379437888335023
 21
-0.3907510065878934
 31
0.0
  0
ARC
  5
15F9
330
1F
100
AcDbEntity
  8
0
  6
Continuous
 62
     7
370
    15
100
AcDbCircle
 10
2.368895409247617
 20
-0.3998785380611635
 30
0.0
 40
0.0158005617977688
100
AcDbArc
 50
20.40593177318212
 51
39.59406822692988
  0
LINE
  5
15FA
330
1F
100
AcDbEntity
  8
0
  6
Continuous
 62
     7
370
    15
100
AcDbLine
 10
2.382071312789864
 20
-0.3953122373793032
 30
0.0
 11
2.383704420965419
 21
-0.3943693706951935
 31
0.0
  0
LINE
  5
15FB
330
1F
100
AcDbEntity
  8
0
  6
Continuous
 62
     7
370
    15
100
AcDbLine
 10
2.363105545521197
 20
-0.4062621369778945
 30
0.0
 11
2.371124358890487
 21
-0.4016324749066544
 31
0.0
  0
ARC
  5
15FC
330
1F
100
AcDbEntity
  8
0
  6
Continuous
 62
     7
370
    15
100
AcDbCircle
 10
2.3752811302727
 20
-0.3961917403083344
 30
0.0
 40
0.0158005617977688
100
AcDbArc
 50
200.4059317731821
 51
219.5940682269299
  0
LINE
  5
15FD
330
1F
100
AcDbEntity
  8
0
  6
Continuous
 62
     7
370
    15
100
AcDbLine
 10
2.383999121257549
 20
-0.3881175863305735
 30
0.0
 11
2.386632548223847
 21
-0.3926788156342736
 31
0.0
  0
ARC
  5
15FE
330
1F
100
AcDbEntity
  8
0
  6
Continuous
 62
     7
370
    15
100
AcDbCircle
 10
2.381262383675367
 20
-0.3896976425103832
 30
0.0
 40
0.003160112359571
100
AcDbArc
 50
30.00000000069515
 51
120.0000000007315
  0
ARC
  5
15FF
330
1F
100
AcDbEntity
  8
0
  6
Continuous
 62
     7
370
    15
100
AcDbCircle
 10
2.383895810641665
 20
-0.3942588718140941
 30
0.0
 40
0.003160112359518
100
AcDbArc
 50
300.0000000000603
 51
30.00000000003797
  0
LWPOLYLINE
  5
1600
330
1F
100
AcDbEntity
  8
0
  6
Continuous
 62
     7
370
    15
100
AcDbPolyline
 90
        8
 70
   128
 43
0.0
 10
2.349578221591006
 20
-0.4043415248474431
 10
2.349596555042186
 20
-0.4043309297450742
 10
2.349793702427636
 20
-0.4042171148013842
 10
2.350196065172784
 20
-0.4039848073727536
 10
2.350779564926487
 20
-0.4036479145117429
 10
2.351509355574539
 20
-0.4032265747611637
 10
2.3523418323847
 20
-0.4027459495268342
 10
2.353227206224179
 20
-0.4022347790050335
  0
LWPOLYLINE
  5
1601
330
1F
100
AcDbEntity
  8
0
  6
Continuous
 62
     7
370
    15
100
AcDbPolyline
 90
        8
 70
   128
 43
0.0
 10
2.35537174911315
 20
-0.4143762325886128
 10
2.355390082564274
 20
-0.4143656374862441
 10
2.355587261342638
 20
-0.4142518068462741
 10
2.355989592694873
 20
-0.4140195151139234
 10
2.356573123841489
 20
-0.4136826222529144
 10
2.357302914489541
 20
-0.4132612825023335
 10
2.358135359906786
 20
-0.4127806572680038
 10
2.359020733746267
 20
-0.4122694867462033
  0
LINE
  5
1602
330
1F
100
AcDbEntity
  8
0
  6
Continuous
 62
     7
370
    15
100
AcDbLine
 10
2.004499578655757
 20
-1.052087922846064
 30
0.0
 11
2.004499578290056
 21
-1.056865897611544
 31
0.0
  0
LINE
  5
1603
330
1F
100
AcDbEntity
  8
0
  6
Continuous
 62
     7
370
    15
100
AcDbLine
 10
2.004499578290056
 20
-1.026318144802704
 30
0.0
 11
2.004499578655757
 21
-1.044789953579824
 31
0.0
  0
LINE
  5
1604
330
1F
100
AcDbEntity
  8
0
  6
Continuous
 62
     7
370
    15
100
AcDbLine
 10
1.992912499637644
 20
-1.052087922846064
 30
0.0
 11
1.992912499638326
 21
-1.056865897611544
 31
0.0
  0
LINE
  5
1605
330
1F
100
AcDbEntity
  8
0
  6
Continuous
 62
     7
370
    15
100
AcDbLine
 10
1.992912499638326
 20
-1.026318144802704
 30
0.0
 11
1.992912499637644
 21
-1.044789953579824
 31
0.0
  0
LINE
  5
1606
330
1F
100
AcDbEntity
  8
0
  6
Continuous
 62
     7
370
    15
100
AcDbLine
 10
2.001339465778248
 20
-1.042118700685424
 30
0.0
 11
2.001339465930503
 21
-1.032859367283954
 31
0.0
  0
LINE
  5
1607
330
1F
100
AcDbEntity
  8
0
  6
Continuous
 62
     7
370
    15
100
AcDbLine
 10
2.001339465930503
 20
-1.056644899849464
 30
0.0
 11
2.001339465778248
 21
-1.054759144347434
 31
0.0
  0
ARC
  5
1608
330
1F
100
AcDbEntity
  8
0
  6
Continuous
 62
     7
370
    15
100
AcDbCircle
 10
1.998706038964205
 20
-1.041065335813934
 30
0.0
 40
0.0158005617977374
100
AcDbArc
 50
260.4059317731078
 51
279.5940682268395
  0
LINE
  5
1609
330
1F
100
AcDbEntity
  8
0
  6
Continuous
 62
     7
370
    15
100
AcDbLine
 10
1.996072611963346
 20
-1.054759144347434
 30
0.0
 11
1.996072611997879
 21
-1.056644899849464
 31
0.0
  0
LINE
  5
160A
330
1F
100
AcDbEntity
  8
0
  6
Continuous
 62
     7
370
    15
100
AcDbLine
 10
1.996072611997879
 20
-1.032859367283954
 30
0.0
 11
1.996072611963346
 21
-1.042118700685424
 31
0.0
  0
ARC
  5
160B
330
1F
100
AcDbEntity
  8
0
  6
Continuous
 62
     7
370
    15
100
AcDbCircle
 10
1.998706038964205
 20
-1.048438931319484
 30
0.0
 40
0.0158005617977374
100
AcDbArc
 50
80.4059317731078
 51
99.59406822682344
  0
LINE
  5
160C
330
1F
100
AcDbEntity
  8
0
  6
Continuous
 62
     7
370
    15
100
AcDbLine
 10
2.001339465930503
 20
-1.060026009971185
 30
0.0
 11
1.996072611997879
 21
-1.060026009971185
 31
0.0
  0
ARC
  5
160D
330
1F
100
AcDbEntity
  8
0
  6
Continuous
 62
     7
370
    15
100
AcDbCircle
 10
2.001339465930503
 20
-1.056865897611544
 30
0.0
 40
0.0031601123595237
100
AcDbArc
 50
270.0
 51
0.0
  0
ARC
  5
160E
330
1F
100
AcDbEntity
  8
0
  6
Continuous
 62
     7
370
    15
100
AcDbCircle
 10
1.996072611997879
 20
-1.056865897611544
 30
0.0
 40
0.0031601123595522
100
AcDbArc
 50
180.0
 51
270.0
  0
LINE
  5
160F
330
1F
100
AcDbEntity
  8
0
  6
Continuous
 62
     7
370
    15
100
AcDbLine
 10
2.004499578290056
 20
-1.022104661656674
 30
0.0
 11
2.004499578290056
 21
-1.026318144802704
 31
0.0
  0
LINE
  5
1610
330
1F
100
AcDbEntity
  8
0
  6
Continuous
 62
     7
370
    15
100
AcDbLine
 10
1.992912499638326
 20
-1.022104661656674
 30
0.0
 11
1.992912499638326
 21
-1.026318144802704
 31
0.0
  0
ARC
  5
1611
330
1F
100
AcDbEntity
  8
0
  6
Continuous
 62
     7
370
    15
100
AcDbCircle
 10
2.001339465930503
 20
-1.064239493117334
 30
0.0
 40
0.0031601123595237
100
AcDbArc
 50
270.0
 51
0.0
  0
LINE
  5
1612
330
1F
100
AcDbEntity
  8
0
  6
Continuous
 62
     7
370
    15
100
AcDbLine
 10
2.001339465930503
 20
-1.067399605476854
 30
0.0
 11
1.996072611997879
 21
-1.067399605476854
 31
0.0
  0
LINE
  5
1613
330
1F
100
AcDbEntity
  8
0
  6
Continuous
 62
     7
370
    15
100
AcDbLine
 10
2.004499578290056
 20
-1.056865897611544
 30
0.0
 11
2.004499578290056
 21
-1.064239493117334
 31
0.0
  0
LINE
  5
1614
330
1F
100
AcDbEntity
  8
0
  6
Continuous
 62
     7
370
    15
100
AcDbLine
 10
2.001339465930503
 20
-1.064018495355135
 30
0.0
 11
2.001339465930503
 21
-1.060026009971185
 31
0.0
  0
ARC
  5
1615
330
1F
100
AcDbEntity
  8
0
  6
Continuous
 62
     7
370
    15
100
AcDbCircle
 10
1.998706038964205
 20
-1.048438931319484
 30
0.0
 40
0.0158005617977374
100
AcDbArc
 50
260.4059317731078
 51
279.5940682268235
  0
LINE
  5
1616
330
1F
100
AcDbEntity
  8
0
  6
Continuous
 62
     7
370
    15
100
AcDbLine
 10
1.996072611997879
 20
-1.060026009971185
 30
0.0
 11
1.996072611997879
 21
-1.064018495355135
 31
0.0
  0
LINE
  5
1617
330
1F
100
AcDbEntity
  8
0
  6
Continuous
 62
     7
370
    15
100
AcDbLine
 10
1.992912499638326
 20
-1.056865897611544
 30
0.0
 11
1.992912499638326
 21
-1.064239493117334
 31
0.0
  0
ARC
  5
1618
330
1F
100
AcDbEntity
  8
0
  6
Continuous
 62
     7
370
    15
100
AcDbCircle
 10
1.996072611997879
 20
-1.064239493117334
 30
0.0
 40
0.0031601123595522
100
AcDbArc
 50
180.0
 51
270.0
  0
ARC
  5
1619
330
1F
100
AcDbEntity
  8
0
  6
Continuous
 62
     7
370
    15
100
AcDbCircle
 10
1.607130546261605
 20
-0.3905720740612544
 30
0.0
 40
0.003160112359571
100
AcDbArc
 50
149.9999999993048
 51
239.999999999325
  0
LINE
  5
161A
330
1F
100
AcDbEntity
  8
0
  6
Continuous
 62
     7
370
    15
100
AcDbLine
 10
1.604393808679422
 20
-0.3889920178814444
 30
0.0
 11
1.607027235645692
 21
-0.3844307885778543
 31
0.0
  0
LINE
  5
161B
330
1F
100
AcDbEntity
  8
0
  6
Continuous
 62
     7
370
    15
100
AcDbLine
 10
1.611936211106926
 20
-0.396995609396243
 30
0.0
 11
1.605550490081814
 21
-0.3933088116434137
 31
0.0
  0
LINE
  5
161C
330
1F
100
AcDbEntity
  8
0
  6
Continuous
 62
     7
370
    15
100
AcDbLine
 10
1.607321935937851
 20
-0.3906825729423536
 30
0.0
 11
1.610779529704505
 21
-0.3926788156342736
 31
0.0
  0
ARC
  5
161D
330
1F
100
AcDbEntity
  8
0
  6
Continuous
 62
     7
370
    15
100
AcDbCircle
 10
1.62213094765568
 20
-0.3961917403083344
 30
0.0
 40
0.0158005617977354
100
AcDbArc
 50
140.4059317732435
 51
159.5940682269913
  0
LINE
  5
161E
330
1F
100
AcDbEntity
  8
0
  6
Continuous
 62
     7
370
    15
100
AcDbLine
 10
1.613412956670803
 20
-0.3881175863305735
 30
0.0
 11
1.60995536290412
 21
-0.3861213436387635
 31
0.0
  0
LINE
  5
161F
330
1F
100
AcDbEntity
  8
0
  6
Continuous
 62
     7
370
    15
100
AcDbLine
 10
1.617729750432776
 20
-0.3869609049282345
 30
0.0
 11
1.611344029407665
 21
-0.3832741071754034
 31
0.0
  0
ARC
  5
1620
330
1F
100
AcDbEntity
  8
0
  6
Continuous
 62
     7
370
    15
100
AcDbCircle
 10
1.609763973227903
 20
-0.386010844757554
 30
0.0
 40
0.0031601123595322
100
AcDbArc
 50
59.99999999949346
 51
149.9999999995298
  0
ARC
  5
1621
330
1F
100
AcDbEntity
  8
0
  6
Continuous
 62
     7
370
    15
100
AcDbCircle
 10
2.387648104700478
 20
-0.386010844757554
 30
0.0
 40
0.003160112359571
100
AcDbArc
 50
30.00000000069515
 51
120.0000000007315
  0
LINE
  5
1622
330
1F
100
AcDbEntity
  8
0
  6
Continuous
 62
     7
370
    15
100
AcDbLine
 10
2.390384842282661
 20
-0.3844307885778543
 30
0.0
 11
2.393018269248959
 21
-0.3889920178814444
 31
0.0
  0
LINE
  5
1623
330
1F
100
AcDbEntity
  8
0
  6
Continuous
 62
     7
370
    15
100
AcDbLine
 10
2.379682327495605
 20
-0.3869609049282345
 30
0.0
 11
2.386068048520716
 21
-0.3832741071754034
 31
0.0
  0
LINE
  5
1624
330
1F
100
AcDbEntity
  8
0
  6
Continuous
 62
     7
370
    15
100
AcDbLine
 10
2.387456715024232
 20
-0.3861213436386535
 30
0.0
 11
2.383999121257549
 21
-0.3881175863305735
 31
0.0
  0
ARC
  5
1625
330
1F
100
AcDbEntity
  8
0
  6
Continuous
 62
     7
370
    15
100
AcDbCircle
 10
2.3752811302727
 20
-0.3961917403083344
 30
0.0
 40
0.0158005617977688
100
AcDbArc
 50
20.40593177318212
 51
39.59406822692988
  0
LINE
  5
1626
330
1F
100
AcDbEntity
  8
0
  6
Continuous
 62
     7
370
    15
100
AcDbLine
 10
2.386632548223847
 20
-0.3926788156342736
 30
0.0
 11
2.39009014199053
 21
-0.3906825729423536
 31
0.0
  0
LINE
  5
1627
330
1F
100
AcDbEntity
  8
0
  6
Continuous
 62
     7
370
    15
100
AcDbLine
 10
2.385475866821427
 20
-0.396995609396243
 30
0.0
 11
2.391861587846538
 21
-0.3933088116434137
 31
0.0
  0
ARC
  5
1628
330
1F
100
AcDbEntity
  8
0
  6
Continuous
 62
     7
370
    15
100
AcDbCircle
 10
2.390281531666776
 20
-0.3905720740612544
 30
0.0
 40
0.003160112359518
100
AcDbArc
 50
300.0000000000603
 51
30.00000000008027
  0
ARC
  5
1629
330
1F
100
AcDbEntity
  8
0
  6
Continuous
 62
     7
370
    15
100
AcDbCircle
 10
1.998706038964205
 20
-1.048438931319484
 30
0.0
 40
0.0110603932584411
100
AcDbArc
 50
301.5881355052029
 51
359.9999999999962
  0
ARC
  5
162A
330
1F
100
AcDbEntity
  8
0
  6
Continuous
 62
     7
370
    15
100
AcDbCircle
 10
1.998706038964205
 20
-1.048438931319484
 30
0.0
 40
0.0110603932584411
100
AcDbArc
 50
121.5881355052029
 51
238.4118644947893
  0
ARC
  5
162B
330
1F
100
AcDbEntity
  8
0
  6
Continuous
 62
     7
370
    15
100
AcDbCircle
 10
1.998706038964205
 20
-1.048438931319484
 30
0.0
 40
0.0110603932584183
100
AcDbArc
 50
0.0
 51
58.4118644947932
  0
ARC
  5
162C
330
1F
100
AcDbEntity
  8
0
  6
Continuous
 62
     7
370
    15
100
AcDbCircle
 10
1.62213094765568
 20
-0.3961917403083344
 30
0.0
 40
0.0110603932584137
100
AcDbArc
 50
181.5881355051831
 51
239.9999999999474
  0
ARC
  5
162D
330
1F
100
AcDbEntity
  8
0
  6
Continuous
 62
     7
370
    15
100
AcDbCircle
 10
1.62213094765568
 20
-0.3961917403083344
 30
0.0
 40
0.0110603932584137
100
AcDbArc
 50
1.588135505183145
 51
118.4118644947644
  0
ARC
  5
162E
330
1F
100
AcDbEntity
  8
0
  6
Continuous
 62
     7
370
    15
100
AcDbCircle
 10
1.62213094765568
 20
-0.3961917403083344
 30
0.0
 40
0.0110603932584398
100
AcDbArc
 50
239.9999999999792
 51
298.4118644947818
  0
ARC
  5
162F
330
1F
100
AcDbEntity
  8
0
  6
Continuous
 62
     7
370
    15
100
AcDbCircle
 10
2.3752811302727
 20
-0.3961917403083344
 30
0.0
 40
0.0110603932584376
100
AcDbArc
 50
61.58813550518613
 51
119.9999999999887
  0
ARC
  5
1630
330
1F
100
AcDbEntity
  8
0
  6
Continuous
 62
     7
370
    15
100
AcDbCircle
 10
2.3752811302727
 20
-0.3961917403083344
 30
0.0
 40
0.0110603932584376
100
AcDbArc
 50
241.5881355051861
 51
358.411864494753
  0
ARC
  5
1631
330
1F
100
AcDbEntity
  8
0
  6
Continuous
 62
     7
370
    15
100
AcDbCircle
 10
2.3752811302727
 20
-0.3961917403083344
 30
0.0
 40
0.0110603932584398
100
AcDbArc
 50
120.0000000000208
 51
178.411864494785
  0
ARC
  5
1632
330
1F
100
AcDbEntity
  8
0
  6
Continuous
 62
     7
370
    15
100
AcDbCircle
 10
1.998706038964205
 20
-0.6136074706453829
 30
0.0
 40
0.4102879213483277
100
AcDbArc
 50
180.0
 51
269.1909184579748
  0
ARC
  5
1633
330
1F
100
AcDbEntity
  8
0
  6
Continuous
 62
     7
370
    15
100
AcDbCircle
 10
1.998706038964205
 20
-0.6136074706453829
 30
0.0
 40
0.4102879213483305
100
AcDbArc
 50
270.8090815420235
 51
29.19091845794759
  0
ARC
  5
1634
330
1F
100
AcDbEntity
  8
0
  6
Continuous
 62
     7
370
    15
100
AcDbCircle
 10
1.998706038964205
 20
-0.6136074706453829
 30
0.0
 40
0.410287921348331
100
AcDbArc
 50
30.80908154202146
 51
149.1909184579931
  0
ARC
  5
1635
330
1F
100
AcDbEntity
  8
0
  6
Continuous
 62
     7
370
    15
100
AcDbCircle
 10
1.998706038964205
 20
-0.6136074706453829
 30
0.0
 40
0.4102879213483067
100
AcDbArc
 50
150.809081542056
 51
180.0000000000053
  0
ARC
  5
1636
330
1F
100
AcDbEntity
  8
0
  6
Continuous
 62
     7
370
    15
100
AcDbCircle
 10
1.998706038964205
 20
-0.6136074706453829
 30
0.0
 40
0.449789325842687
100
AcDbArc
 50
180.0
 51
269.2619777477935
  0
ARC
  5
1637
330
1F
100
AcDbEntity
  8
0
  6
Continuous
 62
     7
370
    15
100
AcDbCircle
 10
1.998706038964205
 20
-0.6136074706453829
 30
0.0
 40
0.4497893258426529
100
AcDbArc
 50
270.738022252206
 51
29.26197774775957
  0
ARC
  5
1638
330
1F
100
AcDbEntity
  8
0
  6
Continuous
 62
     7
370
    15
100
AcDbCircle
 10
1.998706038964205
 20
-0.6136074706453829
 30
0.0
 40
0.4497893258426724
100
AcDbArc
 50
30.73802225221107
 51
149.2619777477832
  0
ARC
  5
1639
330
1F
100
AcDbEntity
  8
0
  6
Continuous
 62
     7
370
    15
100
AcDbCircle
 10
1.998706038964205
 20
-0.6136074706453829
 30
0.0
 40
0.4497893258427209
100
AcDbArc
 50
150.7380222522339
 51
179.9999999999941
  0
LINE
  5
163A
330
1F
100
AcDbEntity
  8
0
  6
Continuous
 62
     7
370
    15
100
AcDbLine
 10
1.642040333533604
 20
-0.4143762325886128
 30
0.0
 11
1.647833861055691
 21
-0.4043415248474431
 31
0.0
  0
LINE
  5
163B
330
1F
100
AcDbEntity
  8
0
  6
Continuous
 62
     7
370
    15
100
AcDbLine
 10
2.349578221591006
 20
-0.4043415248474431
 30
0.0
 11
2.355390082564274
 21
-0.4143656374862441
 31
0.0
  0
LINE
  5
163C
330
1F
100
AcDbEntity
  8
0
  6
Continuous
 62
     7
370
    15
100
AcDbLine
 10
2.004499578290056
 20
-1.022104661656674
 30
0.0
 11
1.992912499638326
 21
-1.022104661656674
 31
0.0
  0
CIRCLE
  5
163D
330
1F
100
AcDbEntity
  8
0
  6
Continuous
 62
     7
370
    15
100
AcDbCircle
 10
1.998706038964205
 20
-0.6136074706453829
 30
0.0
 40
0.3670997191011338
  0
LINE
  5
163E
330
1F
100
AcDbEntity
  8
0
  6
Continuous
 62
     7
370
    15
100
AcDbLine
 10
2.3752811302727
 20
-0.3961917403083344
 30
0.0
 11
2.106988706686796
 21
-0.5510904432871794
 31
0.0
  0
LINE
  5
163F
330
1F
100
AcDbEntity
  8
0
  6
Continuous
 62
     7
370
    15
100
AcDbLine
 10
1.62213094765568
 20
-0.3961917403083344
 30
0.0
 11
1.890423371241611
 21
-0.5510904432871828
 31
0.0
  0
LINE
  5
1640
330
1F
100
AcDbEntity
  8
0
  6
Continuous
 62
     7
370
    15
100
AcDbLine
 10
1.998706038964205
 20
-1.048438931319484
 30
0.0
 11
1.998706038964205
 21
-0.7386415253617984
 31
0.0
  0
LINE
  5
1641
330
1F
100
AcDbEntity
  8
0
  6
Continuous
 62
     7
370
    15
100
AcDbLine
 10
2.109781767079868
 20
0.6606214574767936
 30
0.0
 11
2.433198432498333
 21
0.0905897982743814
 31
0.0
  0
LINE
  5
1642
330
1F
100
AcDbEntity
  8
0
  6
Continuous
 62
     7
370
    15
100
AcDbLine
 10
1.888534082219208
 20
0.6606214574767936
 30
0.0
 11
1.563614863367365
 21
0.0905897982743814
 31
0.0
  0
LINE
  5
1643
330
1F
100
AcDbEntity
  8
S&C_cotas
 62
   252
370
    -2
100
AcDbLine
 10
1.819133951567194
 20
0.7464566827243418
 30
0.0
 11
1.283311461980227
 21
0.7464566827243418
 31
0.0
  0
LINE
  5
1644
330
1F
100
AcDbEntity
  8
S&C_cotas
 62
   252
370
    -2
100
AcDbLine
 10
1.817453760471079
 20
0.6565106033681101
 30
0.0
 11
1.796221982210143
 21
0.6565106033681101
 31
0.0
  0
LINE
  5
1649
330
1F
100
AcDbEntity
  8
S&C_cotas
  6
Continuous
370
    -2
100
AcDbLine
 10
1.519597039761637
 20
0.0806011918520035
 30
0.0
 11
1.42411391464486
 21
0.0806011918520035
 31
0.0
  0
LINE
  5
164A
330
1F
100
AcDbEntity
  8
S&C_cotas
  6
Continuous
370
    -2
100
AcDbLine
 10
1.519597039761637
 20
0.004008662054231
 30
0.0
 11
1.280382807382465
 21
0.004008662054231
 31
0.0
  0
MTEXT
  5
164B
330
1F
100
AcDbEntity
  8
S&C_cotas
  6
Continuous
100
AcDbMText
 10
1.378713665678763
 20
0.0705191126464262
 30
0.0
 40
0.0150000000000001
 41
0.0
 71
     5
 72
     1
  1
8 cm / 3.1"
  7
ARIAL
 11
0.0
 21
1.0
 31
0.0
 73
     1
 44
1.0
  0
LINE
  5
16FA
330
1F
100
AcDbEntity
  8
S&C_cotas
  6
Continuous
370
    -2
100
AcDbLine
 10
1.548683281062161
 20
-0.0319638321801584
 30
0.0
 11
1.548683281062161
 21
-0.1219829303915535
 31
0.0
  0
LINE
  5
16FB
330
1F
100
AcDbEntity
  8
S&C_cotas
  6
Continuous
370
    -2
100
AcDbLine
 10
2.447786098577398
 20
-0.0319638321801584
 30
0.0
 11
2.448261932747563
 21
-0.1219829303915534
 31
0.0
  0
MTEXT
  5
16FC
330
1F
100
AcDbEntity
  8
S&C_cotas
  6
Continuous
100
AcDbMText
 10
1.998472606904862
 20
-0.0861240388319646
 30
0.0
 40
0.02
 41
0.0
 71
     5
 72
     1
  1
{Ø85 cm / 33.5"}
  7
ARIAL
 73
     1
 44
1.0
1001
ACAD
1000
ACAD_MTEXT_DEFINED_HEIGHT_BEGIN
1070
    46
1040
0.0340533333333333
1000
ACAD_MTEXT_DEFINED_HEIGHT_END
  0
LINE
  5
16FE
330
1F
100
AcDbEntity
  8
0
  6
Continuous
 62
     7
370
    15
100
AcDbLine
 10
1.998706038964205
 20
-0.7736709726050275
 30
0.0
 11
1.998706038964205
 21
-0.7736709726050275
 31
0.0
  0
LINE
  5
16FF
330
1F
100
AcDbEntity
  8
0
  6
Continuous
 62
     7
370
    15
100
AcDbLine
 10
1.998706038964205
 20
0.0905898876403608
 30
0.0
 11
1.998706038964205
 21
0.6566190505608678
 31
0.0
  0
LINE
  5
1700
330
1F
100
AcDbEntity
  8
0
  6
Continuous
 62
     7
370
    15
100
AcDbLine
 10
1.993122106008949
 20
0.0905898876403608
 30
0.0
 11
2.004122106008916
 21
0.0905898876403608
 31
0.0
  0
LINE
  5
1701
330
1F
100
AcDbEntity
  8
0
  6
Continuous
 62
     7
370
    15
100
AcDbLine
 10
1.993122106008949
 20
0.0815898876404617
 30
0.0
 11
1.992122106008915
 21
0.0815898876404617
 31
0.0
  0
LINE
  5
1702
330
1F
100
AcDbEntity
  8
0
  6
Continuous
 62
     7
370
    15
100
AcDbLine
 10
2.005122106008892
 20
0.0815898876404617
 30
0.0
 11
2.004122106008916
 21
0.0815898876404617
 31
0.0
  0
LINE
  5
1703
330
1F
100
AcDbEntity
  8
0
  6
Continuous
 62
     7
370
    15
100
AcDbLine
 10
1.993122106008949
 20
0.0815898876404617
 30
0.0
 11
1.996122106008906
 21
0.0815898876404617
 31
0.0
  0
LINE
  5
1704
330
1F
100
AcDbEntity
  8
0
  6
Continuous
 62
     7
370
    15
100
AcDbLine
 10
1.993122106008949
 20
0.0805898876403716
 30
0.0
 11
1.993122106008949
 21
0.0815898876404617
 31
0.0
  0
LINE
  5
1705
330
1F
100
AcDbEntity
  8
0
  6
Continuous
 62
     7
370
    15
100
AcDbLine
 10
2.001122106008902
 20
0.0815898876404617
 30
0.0
 11
1.996122106008906
 21
0.0815898876404617
 31
0.0
  0
LINE
  5
1706
330
1F
100
AcDbEntity
  8
0
  6
Continuous
 62
     7
370
    15
100
AcDbLine
 10
2.001122106008902
 20
0.0815898876404617
 30
0.0
 11
2.004122106008916
 21
0.0815898876404617
 31
0.0
  0
LINE
  5
1707
330
1F
100
AcDbEntity
  8
0
  6
Continuous
 62
     7
370
    15
100
AcDbLine
 10
2.004122106008916
 20
0.0815898876404617
 30
0.0
 11
2.004122106008916
 21
0.0805898876403716
 31
0.0
  0
LINE
  5
1708
330
1F
100
AcDbEntity
  8
0
  6
Continuous
 62
     7
370
    15
100
AcDbLine
 10
1.553219265426153
 20
0.0815897982744823
 30
0.0
 11
1.554719265426174
 21
0.0815897982744823
 31
0.0
  0
LINE
  5
1709
330
1F
100
AcDbEntity
  8
0
  6
Continuous
 62
     7
370
    15
100
AcDbLine
 10
1.558647468656462
 20
0.0815897982744823
 30
0.0
 11
1.554719265426174
 21
0.0815897982744823
 31
0.0
  0
LINE
  5
170A
330
1F
100
AcDbEntity
  8
0
  6
Continuous
 62
     7
370
    15
100
AcDbLine
 10
1.579834002135927
 20
0.0815897982744823
 30
0.0
 11
1.564647468656462
 21
0.0815897982744823
 31
0.0
  0
ARC
  5
170B
330
1F
100
AcDbEntity
  8
0
  6
Continuous
 62
     7
370
    15
100
AcDbCircle
 10
1.58531103494869
 20
0.0784133556463208
 30
0.0
 40
0.003176524802526
100
AcDbArc
 50
43.55191927268503
 51
89.58576491575866
  0
LINE
  5
170C
330
1F
100
AcDbEntity
  8
0
  6
Continuous
 62
     7
370
    15
100
AcDbLine
 10
1.579834002135927
 20
0.0815897982744823
 30
0.0
 11
1.585334002135939
 21
0.0815897982744823
 31
0.0
  0
LINE
  5
170D
330
1F
100
AcDbEntity
  8
0
  6
Continuous
 62
     7
370
    15
100
AcDbLine
 10
2.004122106008916
 20
0.07926907161516
 30
0.0
 11
2.004122106008916
 21
0.0767891463609604
 31
0.0
  0
LINE
  5
170E
330
1F
100
AcDbEntity
  8
0
  6
Continuous
 62
     7
370
    15
100
AcDbLine
 10
1.993122106008949
 20
0.07926907161516
 30
0.0
 11
1.993122106008949
 21
0.0767891463609604
 31
0.0
  0
ARC
  5
170F
330
1F
100
AcDbEntity
  8
0
  6
Continuous
 62
     7
370
    15
100
AcDbCircle
 10
1.995802750012197
 20
0.0768000694981712
 30
0.0
 40
0.0026806662290849
100
AcDbArc
 50
180.2334727241798
 51
215.5635555537071
  0
ARC
  5
1710
330
1F
100
AcDbEntity
  8
0
  6
Continuous
 62
     7
370
    15
100
AcDbCircle
 10
2.00149914884999
 20
0.0767897744873179
 30
0.0
 40
0.002622957204374
100
AcDbArc
 50
324.0349515214421
 51
359.9862750164112
  0
LINE
  5
1711
330
1F
100
AcDbEntity
  8
0
  6
Continuous
 62
     7
370
    15
100
AcDbLine
 10
2.004122106008916
 20
0.0795898876403917
 30
0.0
 11
2.004122106008916
 21
0.07926907161516
 31
0.0
  0
LINE
  5
1712
330
1F
100
AcDbEntity
  8
0
  6
Continuous
 62
     7
370
    15
100
AcDbLine
 10
1.993122106008949
 20
0.0795898876403917
 30
0.0
 11
1.993122106008949
 21
0.07926907161516
 31
0.0
  0
LINE
  5
1713
330
1F
100
AcDbEntity
  8
0
  6
Continuous
 62
     7
370
    15
100
AcDbLine
 10
2.004122106008916
 20
0.0795898876403917
 30
0.0
 11
2.001122106008902
 21
0.0795898876403917
 31
0.0
  0
LINE
  5
1714
330
1F
100
AcDbEntity
  8
0
  6
Continuous
 62
     7
370
    15
100
AcDbLine
 10
2.004122106008916
 20
0.0805898876403716
 30
0.0
 11
2.004122106008916
 21
0.0795898876403917
 31
0.0
  0
LINE
  5
1715
330
1F
100
AcDbEntity
  8
0
  6
Continuous
 62
     7
370
    15
100
AcDbLine
 10
1.993122106008949
 20
0.0795898876403917
 30
0.0
 11
1.993122106008949
 21
0.0805898876403716
 31
0.0
  0
LINE
  5
1716
330
1F
100
AcDbEntity
  8
0
  6
Continuous
 62
     7
370
    15
100
AcDbLine
 10
1.996122106008906
 20
0.0795898876403917
 30
0.0
 11
1.993122106008949
 21
0.0795898876403917
 31
0.0
  0
LINE
  5
1717
330
1F
100
AcDbEntity
  8
0
  6
Continuous
 62
     7
370
    15
100
AcDbLine
 10
2.001122106008902
 20
0.0795898876403917
 30
0.0
 11
1.996122106008906
 21
0.0795898876403917
 31
0.0
  0
LINE
  5
1718
330
1F
100
AcDbEntity
  8
0
  6
Continuous
 62
     7
370
    15
100
AcDbLine
 10
2.0036221060089
 20
0.0485898876405617
 30
0.0
 11
1.993622106008908
 21
0.0485898876405617
 31
0.0
  0
LINE
  5
1719
330
1F
100
AcDbEntity
  8
0
  6
Continuous
 62
     7
370
    15
100
AcDbLine
 10
2.448261932747564
 20
0.0165898876405208
 30
0.0
 11
1.548683281062161
 21
0.0165898876405208
 31
0.0
  0
LINE
  5
171A
330
1F
100
AcDbEntity
  8
0
  6
Continuous
 62
     7
370
    15
100
AcDbLine
 10
2.448261932747564
 20
0.0465898876404917
 30
0.0
 11
1.548683281062161
 21
0.0465898876404917
 31
0.0
  0
LINE
  5
171B
330
1F
100
AcDbEntity
  8
0
  6
Continuous
 62
     7
370
    15
100
AcDbLine
 10
1.993122106008949
 20
0.0905898876403608
 30
0.0
 11
1.992414999227756
 21
0.0898827808591704
 31
0.0
  0
LINE
  5
171C
330
1F
100
AcDbEntity
  8
0
  6
Continuous
 62
     7
370
    15
100
AcDbLine
 10
2.004829212790108
 20
0.0898827808591704
 30
0.0
 11
2.004122106008916
 21
0.0905898876403608
 31
0.0
  0
LINE
  5
171D
330
1F
100
AcDbEntity
  8
0
  6
Continuous
 62
     7
370
    15
100
AcDbLine
 10
1.992122106008915
 20
0.0891756740779801
 30
0.0
 11
1.992122106008915
 21
0.0815898876404617
 31
0.0
  0
LINE
  5
171E
330
1F
100
AcDbEntity
  8
0
  6
Continuous
 62
     7
370
    15
100
AcDbLine
 10
2.005122106008892
 20
0.0815898876404617
 30
0.0
 11
2.005122106008892
 21
0.0891756740779801
 31
0.0
  0
ARC
  5
171F
330
1F
100
AcDbEntity
  8
0
  6
Continuous
 62
     7
370
    15
100
AcDbCircle
 10
2.004122106008916
 20
0.0891756740779801
 30
0.0
 40
0.0010000000000048
100
AcDbArc
 50
0.0
 51
45.0
  0
ARC
  5
1720
330
1F
100
AcDbEntity
  8
0
  6
Continuous
 62
     7
370
    15
100
AcDbCircle
 10
1.993122106008949
 20
0.0891756740779801
 30
0.0
 40
0.0010000000000079
100
AcDbArc
 50
134.9999999999994
 51
179.9999999999994
  0
LINE
  5
1721
330
1F
100
AcDbEntity
  8
0
  6
Continuous
 62
     7
370
    15
100
AcDbLine
 10
1.553219265426153
 20
0.0815897982744823
 30
0.0
 11
1.553219285895837
 21
0.0806020180824022
 31
0.0
  0
LINE
  5
1722
330
1F
100
AcDbEntity
  8
0
  6
Continuous
 62
     7
370
    15
100
AcDbLine
 10
1.994622105818942
 20
0.0485898869762913
 30
0.0
 11
1.994622105818942
 21
0.0465898885109901
 31
0.0
  0
LINE
  5
1723
330
1F
100
AcDbEntity
  8
0
  6
Continuous
 62
     7
370
    15
100
AcDbLine
 10
2.002622106198922
 20
0.0465898885109901
 30
0.0
 11
2.002622106198922
 21
0.0485898869762913
 31
0.0
  0
LINE
  5
1724
330
1F
100
AcDbEntity
  8
0
  6
Continuous
 62
     7
370
    15
100
AcDbLine
 10
1.993622106120691
 20
0.0795898864696518
 30
0.0
 11
1.993622106008908
 21
0.0485898876405617
 31
0.0
  0
LINE
  5
1725
330
1F
100
AcDbEntity
  8
0
  6
Continuous
 62
     7
370
    15
100
AcDbLine
 10
2.0036221060089
 20
0.0485898876405617
 30
0.0
 11
2.003622105897145
 21
0.0671069304178218
 31
0.0
  0
LINE
  5
1726
330
1F
100
AcDbEntity
  8
0
  6
Continuous
 62
     7
370
    15
100
AcDbLine
 10
2.003622105897145
 20
0.0671069304178218
 30
0.0
 11
2.003622105897145
 21
0.0795898864696518
 31
0.0
  0
LINE
  5
1727
330
1F
100
AcDbEntity
  8
0
  6
Continuous
 62
     7
370
    15
100
AcDbLine
 10
1.619809680682151
 20
0.004008662054231
 30
0.0
 11
2.377135533127535
 21
0.004008662054158
 31
0.0
  0
ARC
  5
1728
330
1F
100
AcDbEntity
  8
0
  6
Continuous
 62
     7
370
    15
100
AcDbCircle
 10
1.619809680682188
 20
0.0070086620542007
 30
0.0
 40
0.0029999999999697
100
AcDbArc
 50
207.5388233488566
 51
269.9999999992806
  0
ARC
  5
1729
330
1F
100
AcDbEntity
  8
0
  6
Continuous
 62
     7
370
    15
100
AcDbCircle
 10
2.377135533127535
 20
0.0070086620542007
 30
0.0
 40
0.0030000000000427
100
AcDbArc
 50
270.0
 51
332.4611766504313
  0
LINE
  5
172A
330
1F
100
AcDbEntity
  8
0
  6
Continuous
 62
     7
370
    15
100
AcDbLine
 10
2.379795626380236
 20
0.0056216134296409
 30
0.0
 11
2.381586291210857
 21
0.0090557670871405
 31
0.0
  0
LINE
  5
172B
330
1F
100
AcDbEntity
  8
0
  6
Continuous
 62
     7
370
    15
100
AcDbLine
 10
1.615358922598866
 20
0.0090557670871405
 30
0.0
 11
1.617149587429545
 21
0.0056216134296409
 31
0.0
  0
LINE
  5
172C
330
1F
100
AcDbEntity
  8
0
  6
Continuous
 62
     7
370
    15
100
AcDbLine
 10
2.414997853653639
 20
0.0733489784131507
 30
0.0
 11
2.416719408246201
 21
0.0766506323528801
 31
0.0
  0
LINE
  5
172D
330
1F
100
AcDbEntity
  8
0
  6
Continuous
 62
     7
370
    15
100
AcDbLine
 10
1.580225805563551
 20
0.0766506323528801
 30
0.0
 11
1.581947360156086
 21
0.0733489784131507
 31
0.0
  0
LINE
  5
172E
330
1F
100
AcDbEntity
  8
0
  6
Continuous
 62
     7
370
    15
100
AcDbLine
 10
2.41339125555783
 20
0.0806021059931669
 30
0.0
 11
1.583470476025793
 21
0.0806011616545334
 31
0.0
  0
ARC
  5
172F
330
1F
100
AcDbEntity
  8
0
  6
Continuous
 62
     7
370
    15
100
AcDbCircle
 10
1.583553958251919
 20
0.0769116005768602
 30
0.0
 40
0.0036905054163299
100
AcDbArc
 50
90.0
 51
156.882207656661
  0
ARC
  5
1730
330
1F
100
AcDbEntity
  8
0
  6
Continuous
 62
     7
370
    15
100
AcDbCircle
 10
2.413391255557861
 20
0.0769116005768602
 30
0.0
 40
0.0036905054163067
100
AcDbArc
 50
23.11779234382882
 51
90.0000000004904
  0
ARC
  5
1731
330
1F
100
AcDbEntity
  8
0
  6
Continuous
 62
     7
370
    15
100
AcDbCircle
 10
1.581999201065351
 20
0.0775753314359217
 30
0.0
 40
0.0019999999999875
100
AcDbArc
 50
156.8822076575205
 51
207.5388233504647
  0
ARC
  5
1732
330
1F
100
AcDbEntity
  8
0
  6
Continuous
 62
     7
370
    15
100
AcDbCircle
 10
2.41494601274443
 20
0.0775753314359217
 30
0.0
 40
0.0019999999999966
100
AcDbArc
 50
332.4611766513943
 51
23.117792344375
  0
LINE
  5
1733
330
1F
100
AcDbEntity
  8
0
  6
Continuous
 62
     7
370
    15
100
AcDbLine
 10
1.548683281062161
 20
0.0465898876404917
 30
0.0
 11
1.548683281062161
 21
0.0165898876405208
 31
0.0
  0
LINE
  5
1734
330
1F
100
AcDbEntity
  8
0
  6
Continuous
 62
     7
370
    15
100
AcDbLine
 10
2.448261932747564
 20
0.0165898876405208
 30
0.0
 11
2.448261932747564
 21
0.0465898876404917
 31
0.0
  0
POINT
  5
1735
330
1F
100
AcDbEntity
  8
0
  6
Continuous
 62
     7
370
    15
100
AcDbPoint
 10
1.580159801828167
 20
0.0783605769047408
 30
0.0
  0
POINT
  5
1736
330
1F
100
AcDbEntity
  8
0
  6
Continuous
 62
     7
370
    15
100
AcDbPoint
 10
1.620218452125734
 20
0.0040366415448716
 30
0.0
  0
POINT
  5
1737
330
1F
100
AcDbEntity
  8
0
  6
Continuous
 62
     7
370
    15
100
AcDbPoint
 10
1.548683281062161
 20
0.0465898876404917
 30
0.0
  0
POINT
  5
1738
330
1F
100
AcDbEntity
  8
0
  6
Continuous
 62
     7
370
    15
100
AcDbPoint
 10
2.448261932747564
 20
0.0465898876404917
 30
0.0
  0
LINE
  5
1739
330
1F
100
AcDbEntity
  8
0
  6
Continuous
 62
     7
370
    15
100
AcDbLine
 10
1.581947360156086
 20
0.0733489784131507
 30
0.0
 11
1.595853385595214
 21
0.0465898876404917
 31
0.0
  0
LINE
  5
173A
330
1F
100
AcDbEntity
  8
0
  6
Continuous
 62
     7
370
    15
100
AcDbLine
 10
2.414997853653639
 20
0.0733489784131507
 30
0.0
 11
2.40109182821451
 21
0.0465898876404917
 31
0.0
  0
LINE
  5
173B
330
1F
100
AcDbEntity
  8
0
  6
Continuous
 62
     7
370
    15
100
AcDbLine
 10
1.61144362992443
 20
0.0165898876405208
 30
0.0
 11
1.615358922598866
 21
0.0090557670871405
 31
0.0
  0
LINE
  5
173C
330
1F
100
AcDbEntity
  8
0
  6
Continuous
 62
     7
370
    15
100
AcDbLine
 10
2.385501583885293
 20
0.0165898876405208
 30
0.0
 11
2.381586291210857
 21
0.0090557670871405
 31
0.0
  0
LINE
  5
173D
330
1F
100
AcDbEntity
  8
0
  6
Continuous
 62
     7
370
    15
100
AcDbLine
 10
1.992122106008915
 20
0.0891756740779801
 30
0.0
 11
2.005122106008892
 21
0.0891756740779801
 31
0.0
  0
LINE
  5
173E
330
1F
100
AcDbEntity
  8
0
  6
Continuous
 62
     7
370
    15
100
AcDbLine
 10
1.558264709579528
 20
0.0905897982743814
 30
0.0
 11
1.569264709579495
 21
0.0905897982743814
 31
0.0
  0
LINE
  5
173F
330
1F
100
AcDbEntity
  8
0
  6
Continuous
 62
     7
370
    15
100
AcDbLine
 10
1.558264709579528
 20
0.0815897982744823
 30
0.0
 11
1.557264709579495
 21
0.0815897982744823
 31
0.0
  0
LINE
  5
1740
330
1F
100
AcDbEntity
  8
0
  6
Continuous
 62
     7
370
    15
100
AcDbLine
 10
1.570264709579471
 20
0.0815897982744823
 30
0.0
 11
1.569264709579495
 21
0.0815897982744823
 31
0.0
  0
LINE
  5
1741
330
1F
100
AcDbEntity
  8
0
  6
Continuous
 62
     7
370
    15
100
AcDbLine
 10
1.558264709579528
 20
0.0815897982744823
 30
0.0
 11
1.561264709579485
 21
0.0815897982744823
 31
0.0
  0
LINE
  5
1742
330
1F
100
AcDbEntity
  8
0
  6
Continuous
 62
     7
370
    15
100
AcDbLine
 10
1.558264709579528
 20
0.0805897982743922
 30
0.0
 11
1.558264709579528
 21
0.0815897982744823
 31
0.0
  0
LINE
  5
1743
330
1F
100
AcDbEntity
  8
0
  6
Continuous
 62
     7
370
    15
100
AcDbLine
 10
1.566264709579481
 20
0.0815897982744823
 30
0.0
 11
1.561264709579485
 21
0.0815897982744823
 31
0.0
  0
LINE
  5
1744
330
1F
100
AcDbEntity
  8
0
  6
Continuous
 62
     7
370
    15
100
AcDbLine
 10
1.566264709579481
 20
0.0815897982744823
 30
0.0
 11
1.569264709579495
 21
0.0815897982744823
 31
0.0
  0
LINE
  5
1745
330
1F
100
AcDbEntity
  8
0
  6
Continuous
 62
     7
370
    15
100
AcDbLine
 10
1.569264709579495
 20
0.0815897982744823
 30
0.0
 11
1.569264709579495
 21
0.0805897982743922
 31
0.0
  0
LINE
  5
1746
330
1F
100
AcDbEntity
  8
0
  6
Continuous
 62
     7
370
    15
100
AcDbLine
 10
1.569264709579495
 20
0.0792689822491806
 30
0.0
 11
1.569264709579495
 21
0.076789056994981
 31
0.0
  0
LINE
  5
1747
330
1F
100
AcDbEntity
  8
0
  6
Continuous
 62
     7
370
    15
100
AcDbLine
 10
1.558264709579528
 20
0.0792689822491806
 30
0.0
 11
1.558264709579528
 21
0.076789056994981
 31
0.0
  0
ARC
  5
1748
330
1F
100
AcDbEntity
  8
0
  6
Continuous
 62
     7
370
    15
100
AcDbCircle
 10
1.560945353582777
 20
0.0767999801321918
 30
0.0
 40
0.0026806662290849
100
AcDbArc
 50
180.2334727241798
 51
215.5635555537071
  0
ARC
  5
1749
330
1F
100
AcDbEntity
  8
0
  6
Continuous
 62
     7
370
    15
100
AcDbCircle
 10
1.566641752420569
 20
0.0767896851213385
 30
0.0
 40
0.0026229572043738
100
AcDbArc
 50
324.0349515214392
 51
359.9862750164083
  0
LINE
  5
174A
330
1F
100
AcDbEntity
  8
0
  6
Continuous
 62
     7
370
    15
100
AcDbLine
 10
1.569264709579495
 20
0.0795897982744123
 30
0.0
 11
1.569264709579495
 21
0.0792689822491806
 31
0.0
  0
LINE
  5
174B
330
1F
100
AcDbEntity
  8
0
  6
Continuous
 62
     7
370
    15
100
AcDbLine
 10
1.558264709579528
 20
0.0795897982744123
 30
0.0
 11
1.558264709579528
 21
0.0792689822491806
 31
0.0
  0
LINE
  5
174C
330
1F
100
AcDbEntity
  8
0
  6
Continuous
 62
     7
370
    15
100
AcDbLine
 10
1.569264709579495
 20
0.0795897982744123
 30
0.0
 11
1.566264709579481
 21
0.0795897982744123
 31
0.0
  0
LINE
  5
174D
330
1F
100
AcDbEntity
  8
0
  6
Continuous
 62
     7
370
    15
100
AcDbLine
 10
1.569264709579495
 20
0.0805897982743922
 30
0.0
 11
1.569264709579495
 21
0.0795897982744123
 31
0.0
  0
LINE
  5
174E
330
1F
100
AcDbEntity
  8
0
  6
Continuous
 62
     7
370
    15
100
AcDbLine
 10
1.558264709579528
 20
0.0795897982744123
 30
0.0
 11
1.558264709579528
 21
0.0805897982743922
 31
0.0
  0
LINE
  5
174F
330
1F
100
AcDbEntity
  8
0
  6
Continuous
 62
     7
370
    15
100
AcDbLine
 10
1.561264709579485
 20
0.0795897982744123
 30
0.0
 11
1.558264709579528
 21
0.0795897982744123
 31
0.0
  0
LINE
  5
1750
330
1F
100
AcDbEntity
  8
0
  6
Continuous
 62
     7
370
    15
100
AcDbLine
 10
1.566264709579481
 20
0.0795897982744123
 30
0.0
 11
1.561264709579485
 21
0.0795897982744123
 31
0.0
  0
LINE
  5
1751
330
1F
100
AcDbEntity
  8
0
  6
Continuous
 62
     7
370
    15
100
AcDbLine
 10
1.568764709579479
 20
0.0485897982745823
 30
0.0
 11
1.558764709579488
 21
0.0485897982745823
 31
0.0
  0
LINE
  5
1752
330
1F
100
AcDbEntity
  8
0
  6
Continuous
 62
     7
370
    15
100
AcDbLine
 10
1.558264709579528
 20
0.0905897982743814
 30
0.0
 11
1.557557602798336
 21
0.089882691493191
 31
0.0
  0
LINE
  5
1753
330
1F
100
AcDbEntity
  8
0
  6
Continuous
 62
     7
370
    15
100
AcDbLine
 10
1.569971816360687
 20
0.089882691493191
 30
0.0
 11
1.569264709579495
 21
0.0905897982743814
 31
0.0
  0
LINE
  5
1754
330
1F
100
AcDbEntity
  8
0
  6
Continuous
 62
     7
370
    15
100
AcDbLine
 10
1.557264709579495
 20
0.0891755847120007
 30
0.0
 11
1.557264709579495
 21
0.0815897982744823
 31
0.0
  0
LINE
  5
1755
330
1F
100
AcDbEntity
  8
0
  6
Continuous
 62
     7
370
    15
100
AcDbLine
 10
1.570264709579471
 20
0.0815897982744823
 30
0.0
 11
1.570264709579471
 21
0.0891755847120007
 31
0.0
  0
ARC
  5
1756
330
1F
100
AcDbEntity
  8
0
  6
Continuous
 62
     7
370
    15
100
AcDbCircle
 10
1.569264709579495
 20
0.0891755847120007
 30
0.0
 40
0.0010000000000048
100
AcDbArc
 50
0.0
 51
45.0
  0
ARC
  5
1757
330
1F
100
AcDbEntity
  8
0
  6
Continuous
 62
     7
370
    15
100
AcDbCircle
 10
1.558264709579528
 20
0.0891755847120007
 30
0.0
 40
0.0010000000000079
100
AcDbArc
 50
134.9999999999994
 51
179.9999999999994
  0
LINE
  5
1758
330
1F
100
AcDbEntity
  8
0
  6
Continuous
 62
     7
370
    15
100
AcDbLine
 10
1.559764709389522
 20
0.0485897976103119
 30
0.0
 11
1.559764709389522
 21
0.0465897991450107
 31
0.0
  0
LINE
  5
1759
330
1F
100
AcDbEntity
  8
0
  6
Continuous
 62
     7
370
    15
100
AcDbLine
 10
1.567764709769501
 20
0.0465897991450107
 30
0.0
 11
1.567764709769501
 21
0.0485897976103119
 31
0.0
  0
LINE
  5
175A
330
1F
100
AcDbEntity
  8
0
  6
Continuous
 62
     7
370
    15
100
AcDbLine
 10
1.55876470969127
 20
0.0795897971036724
 30
0.0
 11
1.558764709579488
 21
0.0485897982745823
 31
0.0
  0
LINE
  5
175B
330
1F
100
AcDbEntity
  8
0
  6
Continuous
 62
     7
370
    15
100
AcDbLine
 10
1.568764709579479
 20
0.0485897982745823
 30
0.0
 11
1.568764709467724
 21
0.0671068410518424
 31
0.0
  0
LINE
  5
175C
330
1F
100
AcDbEntity
  8
0
  6
Continuous
 62
     7
370
    15
100
AcDbLine
 10
1.568764709467724
 20
0.0671068410518424
 30
0.0
 11
1.568764709467724
 21
0.0795897971036724
 31
0.0
  0
LINE
  5
175D
330
1F
100
AcDbEntity
  8
0
  6
Continuous
 62
     7
370
    15
100
AcDbLine
 10
1.557264709579495
 20
0.0891755847120007
 30
0.0
 11
1.570264709579471
 21
0.0891755847120007
 31
0.0
  0
LINE
  5
175E
330
1F
100
AcDbEntity
  8
0
  6
Continuous
 62
     7
370
    15
100
AcDbLine
 10
1.583152565203181
 20
0.0805802125553045
 30
0.0
 11
1.569264709579495
 21
0.0805897982743922
 31
0.0
  0
LINE
  5
175F
330
1F
100
AcDbEntity
  8
0
  6
Continuous
 62
     7
370
    15
100
AcDbLine
 10
1.553219285895837
 20
0.0806020180824022
 30
0.0
 11
1.558264709579528
 21
0.0805897982743922
 31
0.0
  0
LINE
  5
1760
330
1F
100
AcDbEntity
  8
0
  6
Continuous
 62
     7
370
    15
100
AcDbLine
 10
2.4437259483836
 20
0.0815897982744823
 30
0.0
 11
2.442225948383578
 21
0.0815897982744823
 31
0.0
  0
LINE
  5
1761
330
1F
100
AcDbEntity
  8
0
  6
Continuous
 62
     7
370
    15
100
AcDbLine
 10
2.438297745153291
 20
0.0815897982744823
 30
0.0
 11
2.442225948383578
 21
0.0815897982744823
 31
0.0
  0
LINE
  5
1762
330
1F
100
AcDbEntity
  8
0
  6
Continuous
 62
     7
370
    15
100
AcDbLine
 10
2.417111211673825
 20
0.0815897982744823
 30
0.0
 11
2.43229774515329
 21
0.0815897982744823
 31
0.0
  0
ARC
  5
1763
330
1F
100
AcDbEntity
  8
0
  6
Continuous
 62
     7
370
    15
100
AcDbCircle
 10
2.411634178861062
 20
0.0784133556463208
 30
0.0
 40
0.003176524802526
100
AcDbArc
 50
90.41423508424289
 51
136.4480807273166
  0
LINE
  5
1764
330
1F
100
AcDbEntity
  8
0
  6
Continuous
 62
     7
370
    15
100
AcDbLine
 10
2.417111211673825
 20
0.0815897982744823
 30
0.0
 11
2.411611211673813
 21
0.0815897982744823
 31
0.0
  0
LINE
  5
1765
330
1F
100
AcDbEntity
  8
0
  6
Continuous
 62
     7
370
    15
100
AcDbLine
 10
2.4437259483836
 20
0.0815897982744823
 30
0.0
 11
2.443725927913915
 21
0.0806020180824022
 31
0.0
  0
ARC
  5
1766
330
1F
100
AcDbEntity
  8
0
  6
Continuous
 62
     7
370
    15
100
AcDbCircle
 10
2.414946012744401
 20
0.0775753314359217
 30
0.0
 40
0.0019999999999874
100
AcDbArc
 50
332.4611766495337
 51
23.11779234247791
  0
POINT
  5
1767
330
1F
100
AcDbEntity
  8
0
  6
Continuous
 62
     7
370
    15
100
AcDbPoint
 10
2.416785411981585
 20
0.0783605769047408
 30
0.0
  0
LINE
  5
1768
330
1F
100
AcDbEntity
  8
0
  6
Continuous
 62
     7
370
    15
100
AcDbLine
 10
2.438680504230224
 20
0.0905897982743814
 30
0.0
 11
2.427680504230257
 21
0.0905897982743814
 31
0.0
  0
LINE
  5
1769
330
1F
100
AcDbEntity
  8
0
  6
Continuous
 62
     7
370
    15
100
AcDbLine
 10
2.438680504230224
 20
0.0815897982744823
 30
0.0
 11
2.439680504230258
 21
0.0815897982744823
 31
0.0
  0
LINE
  5
176A
330
1F
100
AcDbEntity
  8
0
  6
Continuous
 62
     7
370
    15
100
AcDbLine
 10
2.426680504230282
 20
0.0815897982744823
 30
0.0
 11
2.427680504230257
 21
0.0815897982744823
 31
0.0
  0
LINE
  5
176B
330
1F
100
AcDbEntity
  8
0
  6
Continuous
 62
     7
370
    15
100
AcDbLine
 10
2.438680504230224
 20
0.0815897982744823
 30
0.0
 11
2.435680504230267
 21
0.0815897982744823
 31
0.0
  0
LINE
  5
176C
330
1F
100
AcDbEntity
  8
0
  6
Continuous
 62
     7
370
    15
100
AcDbLine
 10
2.438680504230224
 20
0.0805897982743922
 30
0.0
 11
2.438680504230224
 21
0.0815897982744823
 31
0.0
  0
LINE
  5
176D
330
1F
100
AcDbEntity
  8
0
  6
Continuous
 62
     7
370
    15
100
AcDbLine
 10
2.430680504230271
 20
0.0815897982744823
 30
0.0
 11
2.435680504230267
 21
0.0815897982744823
 31
0.0
  0
LINE
  5
176E
330
1F
100
AcDbEntity
  8
0
  6
Continuous
 62
     7
370
    15
100
AcDbLine
 10
2.430680504230271
 20
0.0815897982744823
 30
0.0
 11
2.427680504230257
 21
0.0815897982744823
 31
0.0
  0
LINE
  5
176F
330
1F
100
AcDbEntity
  8
0
  6
Continuous
 62
     7
370
    15
100
AcDbLine
 10
2.427680504230257
 20
0.0815897982744823
 30
0.0
 11
2.427680504230257
 21
0.0805897982743922
 31
0.0
  0
LINE
  5
1770
330
1F
100
AcDbEntity
  8
0
  6
Continuous
 62
     7
370
    15
100
AcDbLine
 10
2.427680504230257
 20
0.0792689822491806
 30
0.0
 11
2.427680504230257
 21
0.076789056994981
 31
0.0
  0
LINE
  5
1771
330
1F
100
AcDbEntity
  8
0
  6
Continuous
 62
     7
370
    15
100
AcDbLine
 10
2.438680504230224
 20
0.0792689822491806
 30
0.0
 11
2.438680504230224
 21
0.076789056994981
 31
0.0
  0
ARC
  5
1772
330
1F
100
AcDbEntity
  8
0
  6
Continuous
 62
     7
370
    15
100
AcDbCircle
 10
2.435999860226976
 20
0.0767999801321918
 30
0.0
 40
0.002680666229085
100
AcDbArc
 50
324.4364444462952
 51
359.7665272758226
  0
ARC
  5
1773
330
1F
100
AcDbEntity
  8
0
  6
Continuous
 62
     7
370
    15
100
AcDbCircle
 10
2.430303461389183
 20
0.0767896851213385
 30
0.0
 40
0.0026229572043736
100
AcDbArc
 50
180.0137249835916
 51
215.9650484785606
  0
LINE
  5
1774
330
1F
100
AcDbEntity
  8
0
  6
Continuous
 62
     7
370
    15
100
AcDbLine
 10
2.427680504230257
 20
0.0795897982744123
 30
0.0
 11
2.427680504230257
 21
0.0792689822491806
 31
0.0
  0
LINE
  5
1775
330
1F
100
AcDbEntity
  8
0
  6
Continuous
 62
     7
370
    15
100
AcDbLine
 10
2.438680504230224
 20
0.0795897982744123
 30
0.0
 11
2.438680504230224
 21
0.0792689822491806
 31
0.0
  0
LINE
  5
1776
330
1F
100
AcDbEntity
  8
0
  6
Continuous
 62
     7
370
    15
100
AcDbLine
 10
2.427680504230257
 20
0.0795897982744123
 30
0.0
 11
2.430680504230271
 21
0.0795897982744123
 31
0.0
  0
LINE
  5
1777
330
1F
100
AcDbEntity
  8
0
  6
Continuous
 62
     7
370
    15
100
AcDbLine
 10
2.427680504230257
 20
0.0805897982743922
 30
0.0
 11
2.427680504230257
 21
0.0795897982744123
 31
0.0
  0
LINE
  5
1778
330
1F
100
AcDbEntity
  8
0
  6
Continuous
 62
     7
370
    15
100
AcDbLine
 10
2.438680504230224
 20
0.0795897982744123
 30
0.0
 11
2.438680504230224
 21
0.0805897982743922
 31
0.0
  0
LINE
  5
1779
330
1F
100
AcDbEntity
  8
0
  6
Continuous
 62
     7
370
    15
100
AcDbLine
 10
2.435680504230267
 20
0.0795897982744123
 30
0.0
 11
2.438680504230224
 21
0.0795897982744123
 31
0.0
  0
LINE
  5
177A
330
1F
100
AcDbEntity
  8
0
  6
Continuous
 62
     7
370
    15
100
AcDbLine
 10
2.430680504230271
 20
0.0795897982744123
 30
0.0
 11
2.435680504230267
 21
0.0795897982744123
 31
0.0
  0
LINE
  5
177B
330
1F
100
AcDbEntity
  8
0
  6
Continuous
 62
     7
370
    15
100
AcDbLine
 10
2.428180504230273
 20
0.0485897982745823
 30
0.0
 11
2.438180504230265
 21
0.0485897982745823
 31
0.0
  0
LINE
  5
177C
330
1F
100
AcDbEntity
  8
0
  6
Continuous
 62
     7
370
    15
100
AcDbLine
 10
2.438680504230224
 20
0.0905897982743814
 30
0.0
 11
2.439387611011417
 21
0.089882691493191
 31
0.0
  0
LINE
  5
177D
330
1F
100
AcDbEntity
  8
0
  6
Continuous
 62
     7
370
    15
100
AcDbLine
 10
2.426973397449065
 20
0.089882691493191
 30
0.0
 11
2.427680504230257
 21
0.0905897982743814
 31
0.0
  0
LINE
  5
177E
330
1F
100
AcDbEntity
  8
0
  6
Continuous
 62
     7
370
    15
100
AcDbLine
 10
2.439680504230258
 20
0.0891755847120007
 30
0.0
 11
2.439680504230258
 21
0.0815897982744823
 31
0.0
  0
LINE
  5
177F
330
1F
100
AcDbEntity
  8
0
  6
Continuous
 62
     7
370
    15
100
AcDbLine
 10
2.426680504230282
 20
0.0815897982744823
 30
0.0
 11
2.426680504230282
 21
0.0891755847120007
 31
0.0
  0
ARC
  5
1780
330
1F
100
AcDbEntity
  8
0
  6
Continuous
 62
     7
370
    15
100
AcDbCircle
 10
2.427680504230257
 20
0.0891755847120007
 30
0.0
 40
0.0010000000000048
100
AcDbArc
 50
134.9999999999989
 51
179.9999999999989
  0
ARC
  5
1781
330
1F
100
AcDbEntity
  8
0
  6
Continuous
 62
     7
370
    15
100
AcDbCircle
 10
2.438680504230224
 20
0.0891755847120007
 30
0.0
 40
0.0010000000000079
100
AcDbArc
 50
0.0000000000007951
 51
45.00000000000081
  0
LINE
  5
1782
330
1F
100
AcDbEntity
  8
0
  6
Continuous
 62
     7
370
    15
100
AcDbLine
 10
2.437180504420231
 20
0.0485897976103119
 30
0.0
 11
2.437180504420231
 21
0.0465897991450107
 31
0.0
  0
LINE
  5
1783
330
1F
100
AcDbEntity
  8
0
  6
Continuous
 62
     7
370
    15
100
AcDbLine
 10
2.429180504040251
 20
0.0465897991450107
 30
0.0
 11
2.429180504040251
 21
0.0485897976103119
 31
0.0
  0
LINE
  5
1784
330
1F
100
AcDbEntity
  8
0
  6
Continuous
 62
     7
370
    15
100
AcDbLine
 10
2.438180504118482
 20
0.0795897971036724
 30
0.0
 11
2.438180504230265
 21
0.0485897982745823
 31
0.0
  0
LINE
  5
1785
330
1F
100
AcDbEntity
  8
0
  6
Continuous
 62
     7
370
    15
100
AcDbLine
 10
2.428180504230273
 20
0.0485897982745823
 30
0.0
 11
2.428180504342028
 21
0.0671068410518424
 31
0.0
  0
LINE
  5
1786
330
1F
100
AcDbEntity
  8
0
  6
Continuous
 62
     7
370
    15
100
AcDbLine
 10
2.428180504342028
 20
0.0671068410518424
 30
0.0
 11
2.428180504342028
 21
0.0795897971036724
 31
0.0
  0
LINE
  5
1787
330
1F
100
AcDbEntity
  8
0
  6
Continuous
 62
     7
370
    15
100
AcDbLine
 10
2.439680504230258
 20
0.0891755847120007
 30
0.0
 11
2.426680504230282
 21
0.0891755847120007
 31
0.0
  0
LINE
  5
1788
330
1F
100
AcDbEntity
  8
0
  6
Continuous
 62
     7
370
    15
100
AcDbLine
 10
2.413792648606572
 20
0.0805802125553045
 30
0.0
 11
2.427680504230257
 21
0.0805897982743922
 31
0.0
  0
LINE
  5
1789
330
1F
100
AcDbEntity
  8
0
  6
Continuous
 62
     7
370
    15
100
AcDbLine
 10
2.443725927913915
 20
0.0806020180824022
 30
0.0
 11
2.438680504230224
 21
0.0805897982743922
 31
0.0
  0
LINE
  5
1873
330
1F
100
AcDbEntity
  8
0
  6
Continuous
 62
     7
100
AcDbLine
 10
1.909171494128626
 20
0.7615695554247393
 30
0.0
 11
1.909171494128626
 21
0.7589932232847365
 31
0.0
  0
LINE
  5
1874
330
1F
100
AcDbEntity
  8
0
  6
Continuous
 62
     7
100
AcDbLine
 10
1.909171494128626
 20
0.7615695554247393
 30
0.0
 11
1.909092981247059
 21
0.7618823524497255
 31
0.0
  0
LINE
  5
1875
330
1F
100
AcDbEntity
  8
0
  6
Continuous
 62
     7
100
AcDbLine
 10
1.909092981247059
 20
0.7618823524497255
 30
0.0
 11
1.907225476467286
 21
0.7618823524497255
 31
0.0
  0
LWPOLYLINE
  5
1876
330
1F
100
AcDbEntity
  8
0
  6
Continuous
 62
     7
100
AcDbPolyline
 90
        3
 70
   128
 43
0.0
 10
1.909092984851468
 20
0.7618823512652745
 10
1.909087401008656
 20
0.7618806515107204
 10
1.909014468119238
 20
0.7615695554247393
  0
LINE
  5
1877
330
1F
100
AcDbEntity
  8
0
  6
Continuous
 62
     7
100
AcDbLine
 10
1.903726011794272
 20
0.7618823524497255
 30
0.0
 11
1.902094051901031
 21
0.7618823524497255
 31
0.0
  0
LINE
  5
1878
330
1F
100
AcDbEntity
  8
0
  6
Continuous
 62
     7
100
AcDbLine
 10
1.90201553491723
 20
0.7615695554247393
 30
0.0
 11
1.902094051901031
 21
0.7618823524497255
 31
0.0
  0
LINE
  5
1879
330
1F
100
AcDbEntity
  8
0
  6
Continuous
 62
     7
100
AcDbLine
 10
1.909014468119238
 20
0.7615695554247393
 30
0.0
 11
1.909014468119238
 21
0.7589932232847365
 31
0.0
  0
LWPOLYLINE
  5
187A
330
1F
100
AcDbEntity
  8
0
  6
Continuous
 62
     7
100
AcDbPolyline
 90
        3
 70
   128
 43
0.0
 10
1.909014468119238
 20
0.7615695554247393
 10
1.908619610663626
 20
0.7616871255088343
 10
1.90722547645262
 20
0.7618823512652745
  0
LINE
  5
187B
330
1F
100
AcDbEntity
  8
0
  6
Continuous
 62
     7
100
AcDbLine
 10
1.907225476467286
 20
0.7618823524497255
 30
0.0
 11
1.903726011794272
 21
0.7618823524497255
 31
0.0
  0
LWPOLYLINE
  5
187C
330
1F
100
AcDbEntity
  8
0
  6
Continuous
 62
     7
100
AcDbPolyline
 90
        3
 70
   128
 43
0.0
 10
1.90722547645262
 20
0.7618823512652745
 10
1.906785001461444
 20
0.7618620250337426
 10
1.905436484786002
 20
0.7615695554247393
  0
LINE
  5
187D
330
1F
100
AcDbEntity
  8
0
  6
Continuous
 62
     7
100
AcDbLine
 10
1.90201553491723
 20
0.7615695554247393
 30
0.0
 11
1.90201553491723
 21
0.7589932232847365
 31
0.0
  0
LINE
  5
187E
330
1F
100
AcDbEntity
  8
0
  6
Continuous
 62
     7
100
AcDbLine
 10
1.905436484786016
 20
0.7615695554247393
 30
0.0
 11
1.905436484786016
 21
0.7589932232847365
 31
0.0
  0
LINE
  5
187F
330
1F
100
AcDbEntity
  8
0
  6
Continuous
 62
     7
100
AcDbLine
 10
1.905436484786016
 20
0.7615695554247393
 30
0.0
 11
1.903726011794272
 21
0.7618823524497255
 31
0.0
  0
LWPOLYLINE
  5
1880
330
1F
100
AcDbEntity
  8
0
  6
Continuous
 62
     7
100
AcDbPolyline
 90
        3
 70
   128
 43
0.0
 10
1.903726009851616
 20
0.7618823512652745
 10
1.903604469946041
 20
0.7618806515107204
 10
1.902015534917243
 20
0.7615695554247393
  0
LINE
  5
1881
330
1F
100
AcDbEntity
  8
0
  6
Continuous
 62
     7
100
AcDbLine
 10
2.095478996277034
 20
0.7615695554247393
 30
0.0
 11
2.095478996277034
 21
0.7589932232847365
 31
0.0
  0
LINE
  5
1882
330
1F
100
AcDbEntity
  8
0
  6
Continuous
 62
     7
100
AcDbLine
 10
2.095478996277034
 20
0.7615695554247393
 30
0.0
 11
2.095400482266308
 21
0.7618823524497255
 31
0.0
  0
LINE
  5
1883
330
1F
100
AcDbEntity
  8
0
  6
Continuous
 62
     7
100
AcDbLine
 10
2.090033512813536
 20
0.7618823524497255
 30
0.0
 11
2.088401552920307
 21
0.7618823524497255
 31
0.0
  0
LINE
  5
1884
330
1F
100
AcDbEntity
  8
0
  6
Continuous
 62
     7
100
AcDbLine
 10
2.088323037065638
 20
0.7615695554247393
 30
0.0
 11
2.088401552920307
 21
0.7618823524497255
 31
0.0
  0
LINE
  5
1885
330
1F
100
AcDbEntity
  8
0
  6
Continuous
 62
     7
100
AcDbLine
 10
2.095400482266308
 20
0.7618823524497255
 30
0.0
 11
2.093532977486536
 21
0.7618823524497255
 31
0.0
  0
LWPOLYLINE
  5
1886
330
1F
100
AcDbEntity
  8
0
  6
Continuous
 62
     7
100
AcDbPolyline
 90
        3
 70
   128
 43
0.0
 10
2.09540047954479
 20
0.7618823512652745
 10
2.095394903157051
 20
0.7618806515107204
 10
2.095321970267631
 20
0.7615695554247393
  0
LINE
  5
1887
330
1F
100
AcDbEntity
  8
0
  6
Continuous
 62
     7
100
AcDbLine
 10
2.088323037065638
 20
0.7615695554247393
 30
0.0
 11
2.088323037065638
 21
0.7589932232847365
 31
0.0
  0
LWPOLYLINE
  5
1888
330
1F
100
AcDbEntity
  8
0
  6
Continuous
 62
     7
100
AcDbPolyline
 90
        3
 70
   128
 43
0.0
 10
2.090033512000024
 20
0.7618823512652745
 10
2.088700561497852
 20
0.7616871255088343
 10
2.088323037065638
 20
0.7615695554247393
  0
LINE
  5
1889
330
1F
100
AcDbEntity
  8
0
  6
Continuous
 62
     7
100
AcDbLine
 10
2.093532977486536
 20
0.7618823524497255
 30
0.0
 11
2.090033512813536
 21
0.7618823524497255
 31
0.0
  0
LWPOLYLINE
  5
188A
330
1F
100
AcDbEntity
  8
0
  6
Continuous
 62
     7
100
AcDbPolyline
 90
        3
 70
   128
 43
0.0
 10
2.09174398693441
 20
0.7615695554247393
 10
2.090454656010688
 20
0.7618620250337426
 10
2.090033512000024
 20
0.7618823512652745
  0
LINE
  5
188B
330
1F
100
AcDbEntity
  8
0
  6
Continuous
 62
     7
100
AcDbLine
 10
2.09174398693441
 20
0.7615695554247393
 30
0.0
 11
2.09174398693441
 21
0.7589932232847365
 31
0.0
  0
LINE
  5
188C
330
1F
100
AcDbEntity
  8
0
  6
Continuous
 62
     7
100
AcDbLine
 10
2.095321970267645
 20
0.7615695554247393
 30
0.0
 11
2.095321970267645
 21
0.7589932232847365
 31
0.0
  0
LINE
  5
188D
330
1F
100
AcDbEntity
  8
0
  6
Continuous
 62
     7
100
AcDbLine
 10
2.095321970267645
 20
0.7615695554247393
 30
0.0
 11
2.093532977486536
 21
0.7618823524497255
 31
0.0
  0
LWPOLYLINE
  5
188E
330
1F
100
AcDbEntity
  8
0
  6
Continuous
 62
     7
100
AcDbPolyline
 90
        3
 70
   128
 43
0.0
 10
2.093532978601015
 20
0.7618823512652745
 10
2.093405854852654
 20
0.7618806515107204
 10
2.09174398693441
 20
0.7615695554247393
  0
LWPOLYLINE
  5
188F
330
1F
100
AcDbEntity
  8
0
  6
Continuous
 62
     7
100
AcDbPolyline
 90
        3
 70
   128
 43
0.0
 10
2.000614771666268
 20
0.7618823512652745
 10
2.000736314367477
 20
0.7618806515107204
 10
2.002325247066596
 20
0.7615695554247393
  0
LINE
  5
1890
330
1F
100
AcDbEntity
  8
0
  6
Continuous
 62
     7
100
AcDbLine
 10
2.002325247066596
 20
0.7615695554247393
 30
0.0
 11
2.002325247066596
 21
0.7589932232847365
 31
0.0
  0
LWPOLYLINE
  5
1891
330
1F
100
AcDbEntity
  8
0
  6
Continuous
 62
     7
100
AcDbPolyline
 90
        3
 70
   128
 43
0.0
 10
2.002325247066596
 20
0.7615695554247393
 10
2.002266063178627
 20
0.7618620250337426
 10
2.002246732198129
 20
0.7618823512652745
  0
LINE
  5
1892
330
1F
100
AcDbEntity
  8
0
  6
Continuous
 62
     7
100
AcDbLine
 10
1.996879762303904
 20
0.7618823524497255
 30
0.0
 11
1.995247802410662
 21
0.7618823524497255
 31
0.0
  0
LWPOLYLINE
  5
1893
330
1F
100
AcDbEntity
  8
0
  6
Continuous
 62
     7
100
AcDbPolyline
 90
        3
 70
   128
 43
0.0
 10
1.995169287505752
 20
0.7615695554247393
 10
1.995186616685138
 20
0.7616871255088343
 10
1.995247802374205
 20
0.7618823512652745
  0
LINE
  5
1894
330
1F
100
AcDbEntity
  8
0
  6
Continuous
 62
     7
100
AcDbLine
 10
2.002246731756691
 20
0.7618823524497255
 30
0.0
 11
2.000379226976905
 21
0.7618823524497255
 31
0.0
  0
LWPOLYLINE
  5
1895
330
1F
100
AcDbEntity
  8
0
  6
Continuous
 62
     7
100
AcDbPolyline
 90
        3
 70
   128
 43
0.0
 10
2.002246732198129
 20
0.7618823512652745
 10
2.002185545693662
 20
0.7616871255088343
 10
2.002168216397781
 20
0.7615695554247393
  0
LINE
  5
1896
330
1F
100
AcDbEntity
  8
0
  6
Continuous
 62
     7
100
AcDbLine
 10
1.995169287505752
 20
0.7615695554247393
 30
0.0
 11
1.995169287505752
 21
0.7589932232847365
 31
0.0
  0
LWPOLYLINE
  5
1897
330
1F
100
AcDbEntity
  8
0
  6
Continuous
 62
     7
100
AcDbPolyline
 90
        3
 70
   128
 43
0.0
 10
1.996879762323657
 20
0.7618823512652745
 10
1.996758219855398
 20
0.7618806515107204
 10
1.995169287505752
 20
0.7615695554247393
  0
LINE
  5
1898
330
1F
100
AcDbEntity
  8
0
  6
Continuous
 62
     7
100
AcDbLine
 10
2.000379226976905
 20
0.7618823524497255
 30
0.0
 11
1.996879762303904
 21
0.7618823524497255
 31
0.0
  0
LINE
  5
1899
330
1F
100
AcDbEntity
  8
0
  6
Continuous
 62
     7
100
AcDbLine
 10
1.998590237258043
 20
0.7615695554247393
 30
0.0
 11
1.996879762303904
 21
0.7618823524497255
 31
0.0
  0
LINE
  5
189A
330
1F
100
AcDbEntity
  8
0
  6
Continuous
 62
     7
100
AcDbLine
 10
1.998590237258043
 20
0.7615695554247393
 30
0.0
 11
1.998590237258043
 21
0.7589932232847365
 31
0.0
  0
LINE
  5
189B
330
1F
100
AcDbEntity
  8
0
  6
Continuous
 62
     7
100
AcDbLine
 10
2.002168216397794
 20
0.7615695554247393
 30
0.0
 11
2.002168216397794
 21
0.7589932232847365
 31
0.0
  0
LINE
  5
189C
330
1F
100
AcDbEntity
  8
0
  6
Continuous
 62
     7
100
AcDbLine
 10
2.002168216397794
 20
0.7615695554247393
 30
0.0
 11
2.000379226976905
 21
0.7618823524497255
 31
0.0
  0
LWPOLYLINE
  5
189D
330
1F
100
AcDbEntity
  8
0
  6
Continuous
 62
     7
100
AcDbPolyline
 90
        3
 70
   128
 43
0.0
 10
2.000379227060883
 20
0.7618823512652745
 10
2.000252105642188
 20
0.7618806515107204
 10
1.998590237258043
 20
0.7615695554247393
  0
LINE
  5
189E
330
1F
100
AcDbEntity
  8
0
  6
Continuous
 62
     7
100
AcDbLine
 10
1.989241550658356
 20
0.7516762148141132
 30
0.0
 11
2.00825298350901
 21
0.7516762148141132
 31
0.0
  0
LINE
  5
189F
330
1F
100
AcDbEntity
  8
0
  6
Continuous
 62
     7
100
AcDbLine
 10
1.873672050960987
 20
0.7586804269169902
 30
0.0
 11
2.123822483206366
 21
0.7586804269169902
 31
0.0
  0
LINE
  5
18A0
330
1F
100
AcDbEntity
  8
0
  6
Continuous
 62
     7
100
AcDbLine
 10
1.873672050960987
 20
0.7566792234590137
 30
0.0
 11
2.123822483206366
 21
0.7566792234590137
 31
0.0
  0
LINE
  5
18A1
330
1F
100
AcDbEntity
  8
0
  6
Continuous
 62
     7
100
AcDbLine
 10
2.095002882953158
 20
0.6566190505608678
 30
0.0
 11
2.090602091166518
 21
0.6566190505608678
 31
0.0
  0
LINE
  5
18A2
330
1F
100
AcDbEntity
  8
0
  6
Continuous
 62
     7
100
AcDbLine
 10
2.090602091166518
 20
0.6566190505608678
 30
0.0
 11
2.088799152233458
 21
0.6566190505608678
 31
0.0
  0
LINE
  5
18A3
330
1F
100
AcDbEntity
  8
0
  6
Continuous
 62
     7
100
AcDbLine
 10
2.001849132443513
 20
0.6566190505608678
 30
0.0
 11
1.99564540172384
 21
0.6566190505608678
 31
0.0
  0
LINE
  5
18A4
330
1F
100
AcDbEntity
  8
0
  6
Continuous
 62
     7
100
AcDbLine
 10
1.908695381933895
 20
0.6566190505608678
 30
0.0
 11
1.902491651214208
 21
0.6566190505608678
 31
0.0
  0
LINE
  5
18A5
330
1F
100
AcDbEntity
  8
0
  6
Continuous
 62
     7
100
AcDbLine
 10
1.998246966219182
 20
0.6606214574767936
 30
0.0
 11
1.999247567948171
 21
0.6606214574767936
 31
0.0
  0
LINE
  5
18A6
330
1F
100
AcDbEntity
  8
0
  6
Continuous
 62
     7
100
AcDbLine
 10
1.999247567948171
 20
0.6626226609347566
 30
0.0
 11
1.998246966219182
 21
0.6626226609347566
 31
0.0
  0
LINE
  5
18A7
330
1F
100
AcDbEntity
  8
0
  6
Continuous
 62
     7
100
AcDbLine
 10
1.873672050960987
 20
0.6626226609347566
 30
0.0
 11
1.998246966219182
 21
0.6626226609347566
 31
0.0
  0
LINE
  5
18A8
330
1F
100
AcDbEntity
  8
0
  6
Continuous
 62
     7
100
AcDbLine
 10
1.873672050960987
 20
0.6606214574767936
 30
0.0
 11
1.998246966219182
 21
0.6606214574767936
 31
0.0
  0
LINE
  5
18A9
330
1F
100
AcDbEntity
  8
0
  6
Continuous
 62
     7
100
AcDbLine
 10
1.998246966219182
 20
0.6626226609347566
 30
0.0
 11
1.998246966219182
 21
0.6606214574767936
 31
0.0
  0
LINE
  5
18AA
330
1F
100
AcDbEntity
  8
0
  6
Continuous
 62
     7
100
AcDbLine
 10
1.999247567948171
 20
0.6626226609347566
 30
0.0
 11
2.123822483206366
 21
0.6626226609347566
 31
0.0
  0
LINE
  5
18AB
330
1F
100
AcDbEntity
  8
0
  6
Continuous
 62
     7
100
AcDbLine
 10
1.999247567948171
 20
0.6606214574767936
 30
0.0
 11
1.999247567948171
 21
0.6626226609347566
 31
0.0
  0
LINE
  5
18AC
330
1F
100
AcDbEntity
  8
0
  6
Continuous
 62
     7
100
AcDbLine
 10
1.999247567948171
 20
0.6606214574767936
 30
0.0
 11
2.123822483206366
 21
0.6606214574767936
 31
0.0
  0
LINE
  5
18AD
330
1F
100
AcDbEntity
  8
0
  6
Continuous
 62
     7
100
AcDbLine
 10
1.873672050960987
 20
0.7226587646736441
 30
0.0
 11
2.123822483206366
 21
0.7226587646736441
 31
0.0
  0
LINE
  5
18AE
330
1F
100
AcDbEntity
  8
0
  6
Continuous
 62
     7
100
AcDbLine
 10
1.873672050960987
 20
0.7206575612156813
 30
0.0
 11
2.123822483206366
 21
0.7206575612156813
 31
0.0
  0
LINE
  5
18AF
330
1F
100
AcDbEntity
  8
0
  6
Continuous
 62
     7
100
AcDbLine
 10
1.873672050960987
 20
0.7466732061691992
 30
0.0
 11
2.123822483206366
 21
0.7466732061691992
 31
0.0
  0
LINE
  5
18B0
330
1F
100
AcDbEntity
  8
0
  6
Continuous
 62
     7
100
AcDbLine
 10
1.873672050960987
 20
0.7446720027112363
 30
0.0
 11
2.123822483206366
 21
0.7446720027112363
 31
0.0
  0
LINE
  5
18B1
330
1F
100
AcDbEntity
  8
0
  6
Continuous
 62
     7
100
AcDbLine
 10
1.873672050960987
 20
0.6986443231780891
 30
0.0
 11
2.123822483206366
 21
0.6986443231780891
 31
0.0
  0
LINE
  5
18B2
330
1F
100
AcDbEntity
  8
0
  6
Continuous
 62
     7
100
AcDbLine
 10
1.873672050960987
 20
0.6966431197201263
 30
0.0
 11
2.123822483206366
 21
0.6966431197201263
 31
0.0
  0
LINE
  5
18B3
330
1F
100
AcDbEntity
  8
0
  6
Continuous
 62
     7
100
AcDbLine
 10
1.873672050960987
 20
0.7346659854214218
 30
0.0
 11
2.123822483206366
 21
0.7346659854214218
 31
0.0
  0
LINE
  5
18B4
330
1F
100
AcDbEntity
  8
0
  6
Continuous
 62
     7
100
AcDbLine
 10
1.873672050960987
 20
0.7326647819634587
 30
0.0
 11
2.123822483206366
 21
0.7326647819634587
 31
0.0
  0
LINE
  5
18B5
330
1F
100
AcDbEntity
  8
0
  6
Continuous
 62
     7
100
AcDbLine
 10
1.873672050960987
 20
0.7106515439258666
 30
0.0
 11
2.123822483206366
 21
0.7106515439258666
 31
0.0
  0
LINE
  5
18B6
330
1F
100
AcDbEntity
  8
0
  6
Continuous
 62
     7
100
AcDbLine
 10
1.873672050960987
 20
0.7086503404679039
 30
0.0
 11
2.123822483206366
 21
0.7086503404679039
 31
0.0
  0
LINE
  5
18B7
330
1F
100
AcDbEntity
  8
0
  6
Continuous
 62
     7
100
AcDbLine
 10
1.873672050960987
 20
0.6866371024303116
 30
0.0
 11
2.123822483206366
 21
0.6866371024303116
 31
0.0
  0
LINE
  5
18B8
330
1F
100
AcDbEntity
  8
0
  6
Continuous
 62
     7
100
AcDbLine
 10
1.873672050960987
 20
0.6846358989723488
 30
0.0
 11
2.123822483206366
 21
0.6846358989723488
 31
0.0
  0
LINE
  5
18B9
330
1F
100
AcDbEntity
  8
0
  6
Continuous
 62
     7
100
AcDbLine
 10
2.095796397307138
 20
0.677131386004991
 30
0.0
 11
2.095796395619479
 21
0.674629881479173
 31
0.0
  0
LINE
  5
18BA
330
1F
100
AcDbEntity
  8
0
  6
Continuous
 62
     7
100
AcDbLine
 10
2.095903424509288
 20
0.677131386004991
 30
0.0
 11
2.095796397307138
 21
0.677131386004991
 31
0.0
  0
LINE
  5
18BB
330
1F
100
AcDbEntity
  8
0
  6
Continuous
 62
     7
100
AcDbLine
 10
2.095861157758939
 20
0.674629881479173
 30
0.0
 11
2.095903424509288
 21
0.677131386004991
 31
0.0
  0
LINE
  5
18BC
330
1F
100
AcDbEntity
  8
0
  6
Continuous
 62
     7
100
AcDbLine
 10
2.087940875163924
 20
0.677131386004991
 30
0.0
 11
2.087898610677436
 21
0.677131386004991
 31
0.0
  0
LINE
  5
18BD
330
1F
100
AcDbEntity
  8
0
  6
Continuous
 62
     7
100
AcDbLine
 10
2.087940875583733
 20
0.674629881479173
 30
0.0
 11
2.087940875163924
 21
0.677131386004991
 31
0.0
  0
LINE
  5
18BE
330
1F
100
AcDbEntity
  8
0
  6
Continuous
 62
     7
100
AcDbLine
 10
1.873672050960987
 20
0.6726286782245712
 30
0.0
 11
2.123822483206366
 21
0.6726286782245712
 31
0.0
  0
LINE
  5
18BF
330
1F
100
AcDbEntity
  8
0
  6
Continuous
 62
     7
100
AcDbLine
 10
1.873672050960987
 20
0.674629881682534
 30
0.0
 11
2.123822483206366
 21
0.674629881682534
 31
0.0
  0
LINE
  5
18C0
330
1F
100
AcDbEntity
  8
0
  6
Continuous
 62
     7
100
AcDbLine
 10
2.002246731756691
 20
0.7618823524497255
 30
0.0
 11
2.002246731756691
 21
0.7618823524497255
 31
0.0
  0
LINE
  5
18C1
330
1F
100
AcDbEntity
  8
0
  6
Continuous
 62
     7
100
AcDbLine
 10
2.002249373154484
 20
0.758680427444215
 30
0.0
 11
2.002252016906512
 21
0.7586819520047682
 31
0.0
  0
LINE
  5
18C2
330
1F
100
AcDbEntity
  8
0
  6
Continuous
 62
     7
100
AcDbLine
 10
1.995242517665836
 20
0.7586819520047682
 30
0.0
 11
1.995245161068405
 21
0.758680427444215
 31
0.0
  0
LINE
  5
18C3
330
1F
100
AcDbEntity
  8
0
  6
Continuous
 62
     7
100
AcDbLine
 10
1.995247802410662
 20
0.7618823524497255
 30
0.0
 11
1.995247802410662
 21
0.7618823524497255
 31
0.0
  0
ARC
  5
18C4
330
1F
100
AcDbEntity
  8
0
  6
Continuous
 62
     7
100
AcDbCircle
 10
1.989241550658356
 20
0.7546780200010643
 30
0.0
 40
0.0030018051869445
100
AcDbArc
 50
180.0
 51
270.0
  0
ARC
  5
18C5
330
1F
100
AcDbEntity
  8
0
  6
Continuous
 62
     7
100
AcDbCircle
 10
2.00825298350901
 20
0.7546780200010643
 30
0.0
 40
0.0030018051869446
100
AcDbArc
 50
270.0
 51
360.0
  0
ARC
  5
18C6
330
1F
100
AcDbEntity
  8
0
  6
Continuous
 62
     7
100
AcDbCircle
 10
2.013255992153911
 20
0.7546780200010643
 30
0.0
 40
0.0020012034579631
100
AcDbArc
 50
90.0
 51
180.0
  0
ARC
  5
18C7
330
1F
100
AcDbEntity
  8
0
  6
Continuous
 62
     7
100
AcDbCircle
 10
1.984238542013442
 20
0.7546780200010643
 30
0.0
 40
0.0020012034579635
100
AcDbArc
 50
0.0
 51
90.0
  0
LINE
  5
18C8
330
1F
100
AcDbEntity
  8
0
  6
Continuous
 62
     7
100
AcDbLine
 10
1.873672050960987
 20
0.7586804269169902
 30
0.0
 11
1.873672050960987
 21
0.7566792234590137
 31
0.0
  0
LINE
  5
18C9
330
1F
100
AcDbEntity
  8
0
  6
Continuous
 62
     7
100
AcDbLine
 10
2.123822483206366
 20
0.7566792234590137
 30
0.0
 11
2.123822483206366
 21
0.7586804269169902
 31
0.0
  0
LINE
  5
18CA
330
1F
100
AcDbEntity
  8
0
  6
Continuous
 62
     7
100
AcDbLine
 10
1.994744860180137
 20
0.6966431198634181
 30
0.0
 11
1.994744860180137
 21
0.6866371023313161
 31
0.0
  0
LINE
  5
18CB
330
1F
100
AcDbEntity
  8
0
  6
Continuous
 62
     7
100
AcDbLine
 10
2.002749674100986
 20
0.6866371023313161
 30
0.0
 11
2.002749674100986
 21
0.6966431198634181
 31
0.0
  0
LINE
  5
18CC
330
1F
100
AcDbEntity
  8
0
  6
Continuous
 62
     7
100
AcDbLine
 10
1.901591110678486
 20
0.6966431198634181
 30
0.0
 11
1.901591110678486
 21
0.6866371023313161
 31
0.0
  0
LINE
  5
18CD
330
1F
100
AcDbEntity
  8
0
  6
Continuous
 62
     7
100
AcDbLine
 10
1.90959592582243
 20
0.6866371023313161
 30
0.0
 11
1.90959592582243
 21
0.6966431198634181
 31
0.0
  0
LINE
  5
18CE
330
1F
100
AcDbEntity
  8
0
  6
Continuous
 62
     7
100
AcDbLine
 10
1.901591110678486
 20
0.7086503402496335
 30
0.0
 11
1.901591110678486
 21
0.6986443231834727
 31
0.0
  0
LINE
  5
18CF
330
1F
100
AcDbEntity
  8
0
  6
Continuous
 62
     7
100
AcDbLine
 10
1.90959592582243
 20
0.6986443231834727
 30
0.0
 11
1.90959592582243
 21
0.7086503402496335
 31
0.0
  0
LINE
  5
18D0
330
1F
100
AcDbEntity
  8
0
  6
Continuous
 62
     7
100
AcDbLine
 10
1.994744860180137
 20
0.7086503402496335
 30
0.0
 11
1.994744860180137
 21
0.6986443231834727
 31
0.0
  0
LINE
  5
18D1
330
1F
100
AcDbEntity
  8
0
  6
Continuous
 62
     7
100
AcDbLine
 10
2.002749674100986
 20
0.6986443231834727
 30
0.0
 11
2.002749674100986
 21
0.7086503402496335
 31
0.0
  0
LINE
  5
18D2
330
1F
100
AcDbEntity
  8
0
  6
Continuous
 62
     7
100
AcDbLine
 10
1.90959592582243
 20
0.7466732047282937
 30
0.0
 11
1.90959592582243
 21
0.7566792236582326
 31
0.0
  0
LINE
  5
18D3
330
1F
100
AcDbEntity
  8
0
  6
Continuous
 62
     7
100
AcDbLine
 10
1.901591110678486
 20
0.7566792236582326
 30
0.0
 11
1.901591110678486
 21
0.7466732047282937
 31
0.0
  0
LINE
  5
18D4
330
1F
100
AcDbEntity
  8
0
  6
Continuous
 62
     7
100
AcDbLine
 10
1.994744860180137
 20
0.7446720009423112
 30
0.0
 11
1.994744860180137
 21
0.7346659857399155
 31
0.0
  0
LINE
  5
18D5
330
1F
100
AcDbEntity
  8
0
  6
Continuous
 62
     7
100
AcDbLine
 10
2.002749674100986
 20
0.7346659857399155
 30
0.0
 11
2.002749674100986
 21
0.7446720009423112
 31
0.0
  0
LINE
  5
18D6
330
1F
100
AcDbEntity
  8
0
  6
Continuous
 62
     7
100
AcDbLine
 10
1.901591110678486
 20
0.7446720009423112
 30
0.0
 11
1.901591110678486
 21
0.7346659857399155
 31
0.0
  0
LINE
  5
18D7
330
1F
100
AcDbEntity
  8
0
  6
Continuous
 62
     7
100
AcDbLine
 10
1.90959592582243
 20
0.7346659857399155
 30
0.0
 11
1.90959592582243
 21
0.7446720009423112
 31
0.0
  0
LINE
  5
18D8
330
1F
100
AcDbEntity
  8
0
  6
Continuous
 62
     7
100
AcDbLine
 10
1.994744860180137
 20
0.732664781953933
 30
0.0
 11
1.994744860180137
 21
0.7226587648877588
 31
0.0
  0
LINE
  5
18D9
330
1F
100
AcDbEntity
  8
0
  6
Continuous
 62
     7
100
AcDbLine
 10
2.002749674100986
 20
0.7226587648877588
 30
0.0
 11
2.002749674100986
 21
0.732664781953933
 31
0.0
  0
LINE
  5
18DA
330
1F
100
AcDbEntity
  8
0
  6
Continuous
 62
     7
100
AcDbLine
 10
1.901591110678486
 20
0.732664781953933
 30
0.0
 11
1.901591110678486
 21
0.7226587648877588
 31
0.0
  0
LINE
  5
18DB
330
1F
100
AcDbEntity
  8
0
  6
Continuous
 62
     7
100
AcDbLine
 10
1.90959592582243
 20
0.7226587648877588
 30
0.0
 11
1.90959592582243
 21
0.732664781953933
 31
0.0
  0
LINE
  5
18DC
330
1F
100
AcDbEntity
  8
0
  6
Continuous
 62
     7
100
AcDbLine
 10
1.994744860180137
 20
0.7206575611017764
 30
0.0
 11
1.994744860180137
 21
0.7106515440356159
 31
0.0
  0
LINE
  5
18DD
330
1F
100
AcDbEntity
  8
0
  6
Continuous
 62
     7
100
AcDbLine
 10
2.002749674100986
 20
0.7106515440356159
 30
0.0
 11
2.002749674100986
 21
0.7206575611017764
 31
0.0
  0
LINE
  5
18DE
330
1F
100
AcDbEntity
  8
0
  6
Continuous
 62
     7
100
AcDbLine
 10
1.901591110678486
 20
0.7206575611017764
 30
0.0
 11
1.901591110678486
 21
0.7106515440356159
 31
0.0
  0
LINE
  5
18DF
330
1F
100
AcDbEntity
  8
0
  6
Continuous
 62
     7
100
AcDbLine
 10
1.90959592582243
 20
0.7106515440356159
 30
0.0
 11
1.90959592582243
 21
0.7206575611017764
 31
0.0
  0
LINE
  5
18E0
330
1F
100
AcDbEntity
  8
0
  6
Continuous
 62
     7
100
AcDbLine
 10
2.087898612826894
 20
0.7446720009423112
 30
0.0
 11
2.087898612826894
 21
0.7346659857399155
 31
0.0
  0
LINE
  5
18E1
330
1F
100
AcDbEntity
  8
0
  6
Continuous
 62
     7
100
AcDbLine
 10
2.095903427970837
 20
0.7346659857399155
 30
0.0
 11
2.095903427970837
 21
0.7446720009423112
 31
0.0
  0
LINE
  5
18E2
330
1F
100
AcDbEntity
  8
0
  6
Continuous
 62
     7
100
AcDbLine
 10
2.087898612826894
 20
0.7206575611017764
 30
0.0
 11
2.087898612826894
 21
0.7106515440356159
 31
0.0
  0
LINE
  5
18E3
330
1F
100
AcDbEntity
  8
0
  6
Continuous
 62
     7
100
AcDbLine
 10
2.095903427970837
 20
0.7106515440356159
 30
0.0
 11
2.095903427970837
 21
0.7206575611017764
 31
0.0
  0
LINE
  5
18E4
330
1F
100
AcDbEntity
  8
0
  6
Continuous
 62
     7
100
AcDbLine
 10
2.087898612826894
 20
0.7086503402496335
 30
0.0
 11
2.087898612826894
 21
0.6986443231834727
 31
0.0
  0
LINE
  5
18E5
330
1F
100
AcDbEntity
  8
0
  6
Continuous
 62
     7
100
AcDbLine
 10
2.095903427970837
 20
0.6986443231834727
 30
0.0
 11
2.095903427970837
 21
0.7086503402496335
 31
0.0
  0
LINE
  5
18E6
330
1F
100
AcDbEntity
  8
0
  6
Continuous
 62
     7
100
AcDbLine
 10
2.095903427970837
 20
0.7466732047282937
 30
0.0
 11
2.095903427970837
 21
0.7566792236582326
 31
0.0
  0
LINE
  5
18E7
330
1F
100
AcDbEntity
  8
0
  6
Continuous
 62
     7
100
AcDbLine
 10
2.087898612826894
 20
0.7566792236582326
 30
0.0
 11
2.087898612826894
 21
0.7466732047282937
 31
0.0
  0
LINE
  5
18E8
330
1F
100
AcDbEntity
  8
0
  6
Continuous
 62
     7
100
AcDbLine
 10
2.087898612826894
 20
0.6966431198634181
 30
0.0
 11
2.087898612826894
 21
0.6866371023313161
 31
0.0
  0
LINE
  5
18E9
330
1F
100
AcDbEntity
  8
0
  6
Continuous
 62
     7
100
AcDbLine
 10
2.095903427970837
 20
0.6866371023313161
 30
0.0
 11
2.095903427970837
 21
0.6966431198634181
 31
0.0
  0
LINE
  5
18EA
330
1F
100
AcDbEntity
  8
0
  6
Continuous
 62
     7
100
AcDbLine
 10
2.002749674100986
 20
0.7466732047282937
 30
0.0
 11
2.002749674100986
 21
0.7516762160570278
 31
0.0
  0
LINE
  5
18EB
330
1F
100
AcDbEntity
  8
0
  6
Continuous
 62
     7
100
AcDbLine
 10
1.994744860180137
 20
0.7516762160570278
 30
0.0
 11
1.994744860180137
 21
0.7466732047282937
 31
0.0
  0
LINE
  5
18EC
330
1F
100
AcDbEntity
  8
0
  6
Continuous
 62
     7
100
AcDbLine
 10
2.087898612826894
 20
0.732664781953933
 30
0.0
 11
2.087898612826894
 21
0.7226587648877588
 31
0.0
  0
LINE
  5
18ED
330
1F
100
AcDbEntity
  8
0
  6
Continuous
 62
     7
100
AcDbLine
 10
2.095903427970837
 20
0.7226587648877588
 30
0.0
 11
2.095903427970837
 21
0.732664781953933
 31
0.0
  0
LINE
  5
18EE
330
1F
100
AcDbEntity
  8
0
  6
Continuous
 62
     7
100
AcDbLine
 10
2.088398914705279
 20
0.6606214568410341
 30
0.0
 11
2.088398911541863
 21
0.6570192912524632
 31
0.0
  0
LINE
  5
18EF
330
1F
100
AcDbEntity
  8
0
  6
Continuous
 62
     7
100
AcDbLine
 10
2.095403123644754
 20
0.6570192912524632
 30
0.0
 11
2.095403126092466
 21
0.6606214568410341
 31
0.0
  0
ARC
  5
18F0
330
1F
100
AcDbEntity
  8
0
  6
Continuous
 62
     7
100
AcDbCircle
 10
2.088799152233458
 20
0.6570192912524632
 30
0.0
 40
0.0004002406915924
100
AcDbArc
 50
180.0
 51
270.0000000000586
  0
ARC
  5
18F1
330
1F
100
AcDbEntity
  8
0
  6
Continuous
 62
     7
100
AcDbCircle
 10
2.095002882953158
 20
0.6570192912524632
 30
0.0
 40
0.0004002406915925
100
AcDbArc
 50
270.0000000000742
 51
0.0000000000156089
  0
ARC
  5
18F2
330
1F
100
AcDbEntity
  8
0
  6
Continuous
 62
     7
100
AcDbCircle
 10
1.99564540172384
 20
0.6570192912524632
 30
0.0
 40
0.0004002406915924
100
AcDbArc
 50
180.0
 51
270.0
  0
ARC
  5
18F3
330
1F
100
AcDbEntity
  8
0
  6
Continuous
 62
     7
100
AcDbCircle
 10
2.001849132443513
 20
0.6570192912524632
 30
0.0
 40
0.0004002406915925
100
AcDbArc
 50
269.9999999999258
 51
359.9999999999843
  0
LINE
  5
18F4
330
1F
100
AcDbEntity
  8
0
  6
Continuous
 62
     7
100
AcDbLine
 10
1.995245161068405
 20
0.6606214568410341
 30
0.0
 11
1.995245161032245
 21
0.6570192912524632
 31
0.0
  0
LINE
  5
18F5
330
1F
100
AcDbEntity
  8
0
  6
Continuous
 62
     7
100
AcDbLine
 10
2.002249373135109
 20
0.6570192912524632
 30
0.0
 11
2.002249373154484
 21
0.6606214568410341
 31
0.0
  0
ARC
  5
18F6
330
1F
100
AcDbEntity
  8
0
  6
Continuous
 62
     7
100
AcDbCircle
 10
1.902491651214208
 20
0.6570192912524632
 30
0.0
 40
0.0004002406915924
100
AcDbArc
 50
180.0
 51
269.9999999999674
  0
ARC
  5
18F7
330
1F
100
AcDbEntity
  8
0
  6
Continuous
 62
     7
100
AcDbCircle
 10
1.908695381933895
 20
0.6570192912524632
 30
0.0
 40
0.0004002406915925
100
AcDbArc
 50
270.0
 51
0.0000000000325548
  0
LINE
  5
18F8
330
1F
100
AcDbEntity
  8
0
  6
Continuous
 62
     7
100
AcDbLine
 10
1.902091412556871
 20
0.6606214568410341
 30
0.0
 11
1.902091410522613
 21
0.6570192912524632
 31
0.0
  0
LINE
  5
18F9
330
1F
100
AcDbEntity
  8
0
  6
Continuous
 62
     7
100
AcDbLine
 10
1.909095622625477
 20
0.6570192912524632
 30
0.0
 11
1.909095623944058
 21
0.6606214568410341
 31
0.0
  0
LINE
  5
18FA
330
1F
100
AcDbEntity
  8
0
  6
Continuous
 62
     7
100
AcDbLine
 10
1.873672050960987
 20
0.6626226609347566
 30
0.0
 11
1.873672050960987
 21
0.6606214574767936
 31
0.0
  0
LINE
  5
18FB
330
1F
100
AcDbEntity
  8
0
  6
Continuous
 62
     7
100
AcDbLine
 10
2.123822483206366
 20
0.6606214574767936
 30
0.0
 11
2.123822483206366
 21
0.6626226609347566
 31
0.0
  0
LINE
  5
18FC
330
1F
100
AcDbEntity
  8
0
  6
Continuous
 62
     7
100
AcDbLine
 10
1.873672050960987
 20
0.7226587646736441
 30
0.0
 11
1.873672050960987
 21
0.7206575612156813
 31
0.0
  0
LINE
  5
18FD
330
1F
100
AcDbEntity
  8
0
  6
Continuous
 62
     7
100
AcDbLine
 10
2.123822483206366
 20
0.7206575612156813
 30
0.0
 11
2.123822483206366
 21
0.7226587646736441
 31
0.0
  0
LINE
  5
18FE
330
1F
100
AcDbEntity
  8
0
  6
Continuous
 62
     7
100
AcDbLine
 10
1.873672050960987
 20
0.7466732061691992
 30
0.0
 11
1.873672050960987
 21
0.7446720027112363
 31
0.0
  0
LINE
  5
18FF
330
1F
100
AcDbEntity
  8
0
  6
Continuous
 62
     7
100
AcDbLine
 10
2.123822483206366
 20
0.7446720027112363
 30
0.0
 11
2.123822483206366
 21
0.7466732061691992
 31
0.0
  0
LINE
  5
1900
330
1F
100
AcDbEntity
  8
0
  6
Continuous
 62
     7
100
AcDbLine
 10
1.873672050960987
 20
0.6986443231780891
 30
0.0
 11
1.873672050960987
 21
0.6966431197201263
 31
0.0
  0
LINE
  5
1901
330
1F
100
AcDbEntity
  8
0
  6
Continuous
 62
     7
100
AcDbLine
 10
2.123822483206366
 20
0.6966431197201263
 30
0.0
 11
2.123822483206366
 21
0.6986443231780891
 31
0.0
  0
LINE
  5
1902
330
1F
100
AcDbEntity
  8
0
  6
Continuous
 62
     7
100
AcDbLine
 10
1.873672050960987
 20
0.7346659854214218
 30
0.0
 11
1.873672050960987
 21
0.7326647819634587
 31
0.0
  0
LINE
  5
1903
330
1F
100
AcDbEntity
  8
0
  6
Continuous
 62
     7
100
AcDbLine
 10
2.123822483206366
 20
0.7326647819634587
 30
0.0
 11
2.123822483206366
 21
0.7346659854214218
 31
0.0
  0
LINE
  5
1904
330
1F
100
AcDbEntity
  8
0
  6
Continuous
 62
     7
100
AcDbLine
 10
1.873672050960987
 20
0.7106515439258666
 30
0.0
 11
1.873672050960987
 21
0.7086503404679039
 31
0.0
  0
LINE
  5
1905
330
1F
100
AcDbEntity
  8
0
  6
Continuous
 62
     7
100
AcDbLine
 10
2.123822483206366
 20
0.7086503404679039
 30
0.0
 11
2.123822483206366
 21
0.7106515439258666
 31
0.0
  0
LINE
  5
1906
330
1F
100
AcDbEntity
  8
0
  6
Continuous
 62
     7
100
AcDbLine
 10
1.873672050960987
 20
0.6866371024303116
 30
0.0
 11
1.873672050960987
 21
0.6846358989723488
 31
0.0
  0
LINE
  5
1907
330
1F
100
AcDbEntity
  8
0
  6
Continuous
 62
     7
100
AcDbLine
 10
2.123822483206366
 20
0.6846358989723488
 30
0.0
 11
2.123822483206366
 21
0.6866371024303116
 31
0.0
  0
LINE
  5
1908
330
1F
100
AcDbEntity
  8
0
  6
Continuous
 62
     7
100
AcDbLine
 10
2.002749674100986
 20
0.6626226606270166
 30
0.0
 11
2.002749674100986
 21
0.6726286776931772
 31
0.0
  0
LINE
  5
1909
330
1F
100
AcDbEntity
  8
0
  6
Continuous
 62
     7
100
AcDbLine
 10
1.994744860180137
 20
0.6726286776931772
 30
0.0
 11
1.994744860180137
 21
0.6626226606270166
 31
0.0
  0
LINE
  5
190A
330
1F
100
AcDbEntity
  8
0
  6
Continuous
 62
     7
100
AcDbLine
 10
1.90959592582243
 20
0.6626226606270166
 30
0.0
 11
1.90959592582243
 21
0.6726286776931772
 31
0.0
  0
LINE
  5
190B
330
1F
100
AcDbEntity
  8
0
  6
Continuous
 62
     7
100
AcDbLine
 10
1.901591110678486
 20
0.6726286776931772
 30
0.0
 11
1.901591110678486
 21
0.6626226606270166
 31
0.0
  0
LINE
  5
190C
330
1F
100
AcDbEntity
  8
0
  6
Continuous
 62
     7
100
AcDbLine
 10
2.002749674100986
 20
0.674629881479173
 30
0.0
 11
2.002749674100986
 21
0.6846358985453337
 31
0.0
  0
LINE
  5
190D
330
1F
100
AcDbEntity
  8
0
  6
Continuous
 62
     7
100
AcDbLine
 10
1.994744860180137
 20
0.6846358985453337
 30
0.0
 11
1.994744860180137
 21
0.674629881479173
 31
0.0
  0
LINE
  5
190E
330
1F
100
AcDbEntity
  8
0
  6
Continuous
 62
     7
100
AcDbLine
 10
2.095903427970837
 20
0.6626226606270166
 30
0.0
 11
2.095903427970837
 21
0.6726286776931772
 31
0.0
  0
LINE
  5
190F
330
1F
100
AcDbEntity
  8
0
  6
Continuous
 62
     7
100
AcDbLine
 10
2.087898612826894
 20
0.6726286776931772
 30
0.0
 11
2.087898612826894
 21
0.6626226606270166
 31
0.0
  0
LINE
  5
1910
330
1F
100
AcDbEntity
  8
0
  6
Continuous
 62
     7
100
AcDbLine
 10
2.095903424509288
 20
0.677131386004991
 30
0.0
 11
2.095903427970837
 21
0.6846358985453337
 31
0.0
  0
LINE
  5
1911
330
1F
100
AcDbEntity
  8
0
  6
Continuous
 62
     7
100
AcDbLine
 10
2.087898612826894
 20
0.6846358985453337
 30
0.0
 11
2.087898610677436
 21
0.677131386004991
 31
0.0
  0
LINE
  5
1912
330
1F
100
AcDbEntity
  8
0
  6
Continuous
 62
     7
100
AcDbLine
 10
1.90959592582243
 20
0.674629881479173
 30
0.0
 11
1.90959592582243
 21
0.6846358985453337
 31
0.0
  0
LINE
  5
1913
330
1F
100
AcDbEntity
  8
0
  6
Continuous
 62
     7
100
AcDbLine
 10
1.901591110678486
 20
0.6846358985453337
 30
0.0
 11
1.901591110678486
 21
0.674629881479173
 31
0.0
  0
LINE
  5
1914
330
1F
100
AcDbEntity
  8
0
  6
Continuous
 62
     7
100
AcDbLine
 10
1.873672050960987
 20
0.674629881682534
 30
0.0
 11
1.873672050960987
 21
0.6726286782245712
 31
0.0
  0
LINE
  5
1915
330
1F
100
AcDbEntity
  8
0
  6
Continuous
 62
     7
100
AcDbLine
 10
2.123822483206366
 20
0.6726286782245712
 30
0.0
 11
2.123822483206366
 21
0.674629881682534
 31
0.0
  0
LINE
  5
1916
330
1F
100
AcDbEntity
  8
0
  6
Continuous
 62
     7
100
AcDbLine
 10
1.99564540172384
 20
0.6566190505608678
 30
0.0
 11
2.001849132443513
 21
0.6566190505608678
 31
0.0
  0
CIRCLE
  5
1950
330
1F
100
AcDbEntity
  8
0
  6
Continuous
 62
     7
370
    15
100
AcDbCircle
 10
1.998706038964205
 20
-0.6136074706453829
 30
0.0
 40
0.1250340547164155
  0
LINE
  5
1953
330
1F
100
AcDbEntity
  8
S&C_cotas
  6
Continuous
370
    -2
100
AcDbLine
 10
2.105885493913409
 20
0.7858906426311457
 30
0.0
 11
2.105901334591367
 21
0.8432791810582556
 31
0.0
  0
LINE
  5
1954
330
1F
100
AcDbEntity
  8
S&C_cotas
  6
Continuous
370
    -2
100
AcDbLine
 10
1.891756723911365
 20
0.7858906426311457
 30
0.0
 11
1.891858731080819
 21
0.8432791810582556
 31
0.0
  0
MTEXT
  5
1955
330
1F
100
AcDbEntity
  8
S&C_cotas
  6
Continuous
 62
   252
100
AcDbMText
 10
1.995257595255324
 20
0.8103662378030699
 30
0.0
 40
0.0162547528517111
 41
0.0
 71
     5
 72
     1
  1
%%c25 cm / 9.8"
  7
ARIAL
 73
     1
 44
1.0
  0
MTEXT
  5
195C
330
1F
100
AcDbEntity
  8
S&C_cotas
 62
   252
100
AcDbMText
 10
1.76670962539183
 20
0.6720230419480048
 30
0.0
 40
0.0162547528517112
 41
0.0
 71
     5
 72
     1
  1
10 cm / 3.9"
  7
ARIAL
 11
0.0
 21
1.0
 31
0.0
 73
     1
 44
1.0
  0
ENDSEC
  0
SECTION
  2
OBJECTS
  0
DICTIONARY
  5
C
330
0
100
AcDbDictionary
281
     1
  3
ACAD_GROUP
350
D
  3
ACAD_IMAGE_VARS
350
1BD1
  3
ACAD_LAYOUT
350
1A
  3
ACAD_MATERIAL
350
1BED
  3
ACAD_MLEADERSTYLE
350
1C0A
  3
ACAD_MLINESTYLE
350
17
  3
ACAD_PLOTSETTINGS
350
19
  3
ACAD_PLOTSTYLENAME
350
E
  3
ACAD_SCALELIST
350
99
  3
ACAD_TABLESTYLE
350
1C02
  3
ACDB_RECOMPOSE_DATA
350
1C22
  3
AcDbVariableDictionary
350
59
  3
APPDATA
350
1BD0
  0
DICTIONARY
  5
1B72
330
10
100
AcDbDictionary
280
     1
281
     1
  3
ADSK_XREC_LAYER_RECONCILED
360
118E
  0
DICTIONARY
  5
1B73
330
C1
100
AcDbDictionary
280
     1
281
     1
  3
ADSK_XREC_LAYER_RECONCILED
360
1190
  0
DICTIONARY
  5
1B74
330
100
100
AcDbDictionary
280
     1
281
     1
  3
ADSK_XREC_LAYER_RECONCILED
360
1192
  0
DICTIONARY
  5
1B75
330
EE3
100
AcDbDictionary
280
     1
281
     1
  3
ADSK_XREC_LAYER_RECONCILED
360
1194
  0
DICTIONARY
  5
D
102
{ACAD_REACTORS
330
C
102
}
330
C
100
AcDbDictionary
281
     1
  0
RASTERVARIABLES
  5
1BD1
102
{ACAD_REACTORS
330
C
102
}
330
C
100
AcDbRasterVariables
 90
        0
 70
     1
 71
     1
 72
     5
  0
DICTIONARY
  5
1A
102
{ACAD_REACTORS
330
C
102
}
330
C
100
AcDbDictionary
281
     1
  3
Layout1
350
74
  3
Layout2
350
BF
  3
Model
350
22
  0
DICTIONARY
  5
1BED
102
{ACAD_REACTORS
330
C
102
}
330
C
100
AcDbDictionary
281
     1
  3
ByBlock
350
1BEF
  3
ByLayer
350
1BEE
  3
Global
350
1BF0
  0
DICTIONARY
  5
1C0A
102
{ACAD_REACTORS
330
C
102
}
330
C
100
AcDbDictionary
281
     1
  0
DICTIONARY
  5
17
102
{ACAD_REACTORS
330
C
102
}
330
C
100
AcDbDictionary
281
     1
  3
Standard
350
18
  0
DICTIONARY
  5
19
102
{ACAD_REACTORS
330
C
102
}
330
C
100
AcDbDictionary
281
     1
  0
ACDBDICTIONARYWDFLT
  5
E
102
{ACAD_REACTORS
330
C
102
}
330
C
100
AcDbDictionary
281
     1
  3
Normal
350
F
100
AcDbDictionaryWithDefault
340
F
  0
DICTIONARY
  5
99
102
{ACAD_REACTORS
330
C
102
}
330
C
100
AcDbDictionary
281
     1
  3
A0
350
1D9
  3
A1
350
1DA
  3
A2
350
1DB
  3
A3
350
1DC
  3
A4
350
1DD
  3
A5
350
1DE
  3
A6
350
1DF
  3
A7
350
1E0
  3
A8
350
1E1
  3
A9
350
1E2
  3
B0
350
1E3
  3
B1
350
1E4
  3
B2
350
1E5
  3
B3
350
1E6
  3
B4
350
1E7
  3
B5
350
1E8
  3
B6
350
1E9
  3
B7
350
1EA
  3
B8
350
1EB
  3
B9
350
1EC
  3
C0
350
1ED
  3
C1
350
1EE
  3
C2
350
1EF
  3
C3
350
1F0
  3
C4
350
1F1
  3
C5
350
1F2
  3
C6
350
1F3
  3
C7
350
1F4
  3
C8
350
1F5
  3
C9
350
1F6
  3
D0
350
1F7
  3
D1
350
1F8
  3
D2
350
1F9
  0
DICTIONARY
  5
1C02
102
{ACAD_REACTORS
330
C
102
}
330
C
100
AcDbDictionary
281
     1
  3
Standard
350
1C03
  0
XRECORD
  5
1C22
102
{ACAD_REACTORS
330
C
102
}
330
C
100
AcDbXrecord
280
     1
 90
        1
330
1C03
  0
DICTIONARY
  5
59
102
{ACAD_REACTORS
330
C
102
}
330
C
100
AcDbDictionary
281
     1
  3
CANNOSCALE
350
1C04
  3
CTABLESTYLE
350
1C09
  3
DIMASSOC
350
1D7
  3
HIDETEXT
350
1D8
  3
XCLIPFRAME
350
1C23
  0
DICTIONARY
  5
1BD0
102
{ACAD_REACTORS
330
C
102
}
330
C
100
AcDbDictionary
281
     1
  0
XRECORD
  5
118E
102
{ACAD_REACTORS
330
1B72
102
}
330
1B72
100
AcDbXrecord
280
     1
290
     1
  0
XRECORD
  5
1190
102
{ACAD_REACTORS
330
1B73
102
}
330
1B73
100
AcDbXrecord
280
     1
290
     1
  0
XRECORD
  5
1192
102
{ACAD_REACTORS
330
1B74
102
}
330
1B74
100
AcDbXrecord
280
     1
290
     1
  0
XRECORD
  5
1194
102
{ACAD_REACTORS
330
1B75
102
}
330
1B75
100
AcDbXrecord
280
     1
290
     1
  0
LAYOUT
  5
74
102
{ACAD_REACTORS
330
1A
102
}
330
1A
100
AcDbPlotSettings
  1

  2
\\ADSCCNDC1\hq601xrx1
  4

  6

 40
0.0
 41
0.0
 42
0.0
 43
0.0
 44
0.0
 45
0.0
 46
0.0
 47
0.0
 48
0.0
 49
0.0
140
0.0
141
0.0
142
1.0
143
1.0
 70
   688
 72
     0
 73
     0
 74
     5
  7

 75
    16
 76
     0
 77
     2
 78
   300
147
1.0
148
0.0
149
0.0
100
AcDbLayout
  1
Layout1
 70
     1
 71
     1
 10
0.0
 20
0.0
 11
12.0
 21
9.0
 12
0.0
 22
0.0
 32
0.0
 14
0.0
 24
0.0
 34
0.0
 15
0.0
 25
0.0
 35
0.0
146
0.0
 13
0.0
 23
0.0
 33
0.0
 16
1.0
 26
0.0
 36
0.0
 17
0.0
 27
1.0
 37
0.0
 76
     0
330
73
  0
LAYOUT
  5
BF
102
{ACAD_REACTORS
330
1A
102
}
330
1A
100
AcDbPlotSettings
  1

  2
none_device
  4
Sun_Hi-Res_(1280.00_x_1600.00_Pixels)
  6

 40
0.0
 41
0.0
 42
0.0
 43
0.0
 44
1280.0
 45
1600.0
 46
0.0
 47
0.0
 48
0.0
 49
0.0
140
0.0
141
0.0
142
1.0
143
1.0
 70
   544
 72
     2
 73
     0
 74
     5
  7

 75
    16
 76
     0
 77
     2
 78
   300
147
1.0
148
0.0
149
0.0
100
AcDbLayout
  1
Layout2
 70
     1
 71
     2
 10
0.0
 20
0.0
 11
12.0
 21
9.0
 12
0.0
 22
0.0
 32
0.0
 14
1.000000000000000E+20
 24
1.000000000000000E+20
 34
1.000000000000000E+20
 15
-1.000000000000000E+20
 25
-1.000000000000000E+20
 35
-1.000000000000000E+20
146
0.0
 13
0.0
 23
0.0
 33
0.0
 16
1.0
 26
0.0
 36
0.0
 17
0.0
 27
1.0
 37
0.0
 76
     0
330
BE
  0
LAYOUT
  5
22
102
{ACAD_REACTORS
330
1A
102
}
330
1A
100
AcDbPlotSettings
  1

  2
none_device
  4
Sun_Hi-Res_(1280.00_x_1600.00_Pixels)
  6

 40
6.349999904632567
 41
6.349999904632567
 42
6.350006103515625
 43
6.350006103515625
 44
1280.0
 45
1600.0
 46
0.0
 47
0.0
 48
1.1698
 49
-1.2521
140
2.6988
141
0.9770000000000002
142
1.0
143
0.0013931875
 70
 11956
 72
     2
 73
     0
 74
     4
  7

 75
     0
 76
     0
 77
     2
 78
   300
147
0.28088241027059
148
0.1311165230791651
149
0.096403374003771
100
AcDbLayout
  1
Model
 70
     1
 71
     0
 10
0.0
 20
0.0
 11
12.0
 21
9.0
 12
0.0
 22
0.0
 32
0.0
 14
1.280382807382465
 24
-1.067399605476886
 34
0.0
 15
88.0854366253206
 25
151.4904126867742
 35
0.0
146
0.0
 13
0.0
 23
0.0
 33
0.0
 16
1.0
 26
0.0
 36
0.0
 17
0.0
 27
1.0
 37
0.0
 76
     0
330
1F
331
97
  0
MATERIAL
  5
1BEF
102
{ACAD_REACTORS
330
1BED
102
}
330
1BED
100
AcDbMaterial
  1
ByBlock
  0
MATERIAL
  5
1BEE
102
{ACAD_REACTORS
330
1BED
102
}
330
1BED
100
AcDbMaterial
  1
ByLayer
  0
MATERIAL
  5
1BF0
102
{ACAD_REACTORS
330
1BED
102
}
330
1BED
100
AcDbMaterial
  1
Global
  0
MLINESTYLE
  5
18
102
{ACAD_REACTORS
330
17
102
}
330
17
100
AcDbMlineStyle
  2
Standard
 70
     0
  3

 62
   256
 51
90.0
 52
90.0
 71
     2
 49
0.5
 62
   256
  6
BYLAYER
 49
-0.5
 62
   256
  6
BYLAYER
  0
ACDBPLACEHOLDER
  5
F
102
{ACAD_REACTORS
330
E
102
}
330
E
  0
SCALE
  5
1D9
102
{ACAD_REACTORS
330
99
102
}
330
99
100
AcDbScale
 70
     0
300
1:1
140
1.0
141
1.0
290
     1
  0
SCALE
  5
1DA
102
{ACAD_REACTORS
330
99
102
}
330
99
100
AcDbScale
 70
     0
300
1:2
140
1.0
141
2.0
290
     0
  0
SCALE
  5
1DB
102
{ACAD_REACTORS
330
99
102
}
330
99
100
AcDbScale
 70
     0
300
1:4
140
1.0
141
4.0
290
     0
  0
SCALE
  5
1DC
102
{ACAD_REACTORS
330
99
102
}
330
99
100
AcDbScale
 70
     0
300
1:5
140
1.0
141
5.0
290
     0
  0
SCALE
  5
1DD
102
{ACAD_REACTORS
330
99
102
}
330
99
100
AcDbScale
 70
     0
300
1:8
140
1.0
141
8.0
290
     0
  0
SCALE
  5
1DE
102
{ACAD_REACTORS
330
99
102
}
330
99
100
AcDbScale
 70
     0
300
1:10
140
1.0
141
10.0
290
     0
  0
SCALE
  5
1DF
102
{ACAD_REACTORS
330
99
102
}
330
99
100
AcDbScale
 70
     0
300
1:16
140
1.0
141
16.0
290
     0
  0
SCALE
  5
1E0
102
{ACAD_REACTORS
330
99
102
}
330
99
100
AcDbScale
 70
     0
300
1:20
140
1.0
141
20.0
290
     0
  0
SCALE
  5
1E1
102
{ACAD_REACTORS
330
99
102
}
330
99
100
AcDbScale
 70
     0
300
1:30
140
1.0
141
30.0
290
     0
  0
SCALE
  5
1E2
102
{ACAD_REACTORS
330
99
102
}
330
99
100
AcDbScale
 70
     0
300
1:40
140
1.0
141
40.0
290
     0
  0
SCALE
  5
1E3
102
{ACAD_REACTORS
330
99
102
}
330
99
100
AcDbScale
 70
     0
300
1:50
140
1.0
141
50.0
290
     0
  0
SCALE
  5
1E4
102
{ACAD_REACTORS
330
99
102
}
330
99
100
AcDbScale
 70
     0
300
1:100
140
1.0
141
100.0
290
     0
  0
SCALE
  5
1E5
102
{ACAD_REACTORS
330
99
102
}
330
99
100
AcDbScale
 70
     0
300
2:1
140
2.0
141
1.0
290
     0
  0
SCALE
  5
1E6
102
{ACAD_REACTORS
330
99
102
}
330
99
100
AcDbScale
 70
     0
300
4:1
140
4.0
141
1.0
290
     0
  0
SCALE
  5
1E7
102
{ACAD_REACTORS
330
99
102
}
330
99
100
AcDbScale
 70
     0
300
8:1
140
8.0
141
1.0
290
     0
  0
SCALE
  5
1E8
102
{ACAD_REACTORS
330
99
102
}
330
99
100
AcDbScale
 70
     0
300
10:1
140
10.0
141
1.0
290
     0
  0
SCALE
  5
1E9
102
{ACAD_REACTORS
330
99
102
}
330
99
100
AcDbScale
 70
     0
300
100:1
140
100.0
141
1.0
290
     0
  0
SCALE
  5
1EA
102
{ACAD_REACTORS
330
99
102
}
330
99
100
AcDbScale
 70
     0
300
1/128" = 1'-0"
140
0.0078125
141
12.0
290
     0
  0
SCALE
  5
1EB
102
{ACAD_REACTORS
330
99
102
}
330
99
100
AcDbScale
 70
     0
300
1/64" = 1'-0"
140
0.015625
141
12.0
290
     0
  0
SCALE
  5
1EC
102
{ACAD_REACTORS
330
99
102
}
330
99
100
AcDbScale
 70
     0
300
1/32" = 1'-0"
140
0.03125
141
12.0
290
     0
  0
SCALE
  5
1ED
102
{ACAD_REACTORS
330
99
102
}
330
99
100
AcDbScale
 70
     0
300
1/16" = 1'-0"
140
0.0625
141
12.0
290
     0
  0
SCALE
  5
1EE
102
{ACAD_REACTORS
330
99
102
}
330
99
100
AcDbScale
 70
     0
300
3/32" = 1'-0"
140
0.09375
141
12.0
290
     0
  0
SCALE
  5
1EF
102
{ACAD_REACTORS
330
99
102
}
330
99
100
AcDbScale
 70
     0
300
1/8" = 1'-0"
140
0.125
141
12.0
290
     0
  0
SCALE
  5
1F0
102
{ACAD_REACTORS
330
99
102
}
330
99
100
AcDbScale
 70
     0
300
3/16" = 1'-0"
140
0.1875
141
12.0
290
     0
  0
SCALE
  5
1F1
102
{ACAD_REACTORS
330
99
102
}
330
99
100
AcDbScale
 70
     0
300
1/4" = 1'-0"
140
0.25
141
12.0
290
     0
  0
SCALE
  5
1F2
102
{ACAD_REACTORS
330
99
102
}
330
99
100
AcDbScale
 70
     0
300
3/8" = 1'-0"
140
0.375
141
12.0
290
     0
  0
SCALE
  5
1F3
102
{ACAD_REACTORS
330
99
102
}
330
99
100
AcDbScale
 70
     0
300
1/2" = 1'-0"
140
0.5
141
12.0
290
     0
  0
SCALE
  5
1F4
102
{ACAD_REACTORS
330
99
102
}
330
99
100
AcDbScale
 70
     0
300
3/4" = 1'-0"
140
0.75
141
12.0
290
     0
  0
SCALE
  5
1F5
102
{ACAD_REACTORS
330
99
102
}
330
99
100
AcDbScale
 70
     0
300
1" = 1'-0"
140
1.0
141
12.0
290
     0
  0
SCALE
  5
1F6
102
{ACAD_REACTORS
330
99
102
}
330
99
100
AcDbScale
 70
     0
300
1-1/2" = 1'-0"
140
1.5
141
12.0
290
     0
  0
SCALE
  5
1F7
102
{ACAD_REACTORS
330
99
102
}
330
99
100
AcDbScale
 70
     0
300
3" = 1'-0"
140
3.0
141
12.0
290
     0
  0
SCALE
  5
1F8
102
{ACAD_REACTORS
330
99
102
}
330
99
100
AcDbScale
 70
     0
300
6" = 1'-0"
140
6.0
141
12.0
290
     0
  0
SCALE
  5
1F9
102
{ACAD_REACTORS
330
99
102
}
330
99
100
AcDbScale
 70
     0
300
1'-0" = 1'-0"
140
12.0
141
12.0
290
     0
  0
TABLESTYLE
  5
1C03
102
{ACAD_REACTORS
330
1C02
102
}
102
{ACAD_XDICTIONARY
360
1C0B
102
}
330
1C02
100
AcDbTableStyle
  3
Standard
 70
     0
 71
     0
 40
0.06
 41
0.06
280
     0
281
     0
  7
Standard
140
0.18
170
     2
 62
     0
 63
   257
283
     0
274
    -2
284
     1
 64
     0
275
    -2
285
     1
 65
     0
276
    -2
286
     1
 66
     0
277
    -2
287
     1
 67
     0
278
    -2
288
     1
 68
     0
279
    -2
289
     1
 69
     0
  7
Standard
140
0.25
170
     5
 62
     0
 63
   257
283
     0
274
    -2
284
     1
 64
     0
275
    -2
285
     1
 65
     0
276
    -2
286
     1
 66
     0
277
    -2
287
     1
 67
     0
278
    -2
288
     1
 68
     0
279
    -2
289
     1
 69
     0
  7
Standard
140
0.18
170
     5
 62
     0
 63
   257
283
     0
274
    -2
284
     1
 64
     0
275
    -2
285
     1
 65
     0
276
    -2
286
     1
 66
     0
277
    -2
287
     1
 67
     0
278
    -2
288
     1
 68
     0
279
    -2
289
     1
 69
     0
  0
DICTIONARYVAR
  5
1C04
102
{ACAD_REACTORS
330
59
102
}
330
59
100
DictionaryVariables
280
     0
  1
1:1
  0
DICTIONARYVAR
  5
1C09
102
{ACAD_REACTORS
330
59
102
}
330
59
100
DictionaryVariables
280
     0
  1
Standard
  0
DICTIONARYVAR
  5
1D7
102
{ACAD_REACTORS
330
59
102
}
330
59
100
DictionaryVariables
280
     0
  1
2
  0
DICTIONARYVAR
  5
1D8
102
{ACAD_REACTORS
330
59
102
}
330
59
100
DictionaryVariables
280
     0
  1
1
  0
DICTIONARYVAR
  5
1C23
102
{ACAD_REACTORS
330
59
102
}
330
59
100
DictionaryVariables
280
     0
  1
0
  0
DICTIONARY
  5
1C0B
330
1C03
100
AcDbDictionary
280
     1
281
     1
  3
ACAD_ROUNDTRIP_2008_TABLESTYLE_CELLSTYLEMAP
360
1C21
  3
ACAD_XREC_ROUNDTRIP
360
1C20
  0
CELLSTYLEMAP
  5
1C21
102
{ACAD_REACTORS
330
1C0B
102
}
330
1C0B
100
AcDbCellStyleMap
 90
        3
300
CELLSTYLE
  1
TABLEFORMAT_BEGIN
 90
        5
170
     1
 91
        0
 92
    32768
 62
   257
 93
        1
300
CONTENTFORMAT
  1
CONTENTFORMAT_BEGIN
 90
        0
 91
        0
 92
        4
 93
        0
300

 40
0.0
140
1.0
 94
        5
 62
     0
340
11
144
0.25
309
CONTENTFORMAT_END
171
     1
301
MARGIN
  1
CELLMARGIN_BEGIN
 40
0.06
 40
0.06
 40
0.06
 40
0.06
 40
0.06
 40
0.06
309
CELLMARGIN_END
 94
        6
 95
        1
302
GRIDFORMAT
  1
GRIDFORMAT_BEGIN
 90
        0
 91
        1
 62
     0
 92
       -2
340
0
 93
        0
 40
0.045
309
GRIDFORMAT_END
 95
        2
302
GRIDFORMAT
  1
GRIDFORMAT_BEGIN
 90
        0
 91
        1
 62
     0
 92
       -2
340
0
 93
        0
 40
0.045
309
GRIDFORMAT_END
 95
        4
302
GRIDFORMAT
  1
GRIDFORMAT_BEGIN
 90
        0
 91
        1
 62
     0
 92
       -2
340
0
 93
        0
 40
0.045
309
GRIDFORMAT_END
 95
        8
302
GRIDFORMAT
  1
GRIDFORMAT_BEGIN
 90
        0
 91
        1
 62
     0
 92
       -2
340
0
 93
        0
 40
0.045
309
GRIDFORMAT_END
 95
       16
302
GRIDFORMAT
  1
GRIDFORMAT_BEGIN
 90
        0
 91
        1
 62
     0
 92
       -2
340
0
 93
        0
 40
0.045
309
GRIDFORMAT_END
 95
       32
302
GRIDFORMAT
  1
GRIDFORMAT_BEGIN
 90
        0
 91
        1
 62
     0
 92
       -2
340
0
 93
        0
 40
0.045
309
GRIDFORMAT_END
309
TABLEFORMAT_END
  1
CELLSTYLE_BEGIN
 90
        1
 91
        1
300
_TITLE
309
CELLSTYLE_END
300
CELLSTYLE
  1
TABLEFORMAT_BEGIN
 90
        5
170
     1
 91
        0
 92
        0
 62
   257
 93
        1
300
CONTENTFORMAT
  1
CONTENTFORMAT_BEGIN
 90
        0
 91
        0
 92
        4
 93
        0
300

 40
0.0
140
1.0
 94
        5
 62
     0
340
11
144
0.18
309
CONTENTFORMAT_END
171
     1
301
MARGIN
  1
CELLMARGIN_BEGIN
 40
0.06
 40
0.06
 40
0.06
 40
0.06
 40
0.06
 40
0.06
309
CELLMARGIN_END
 94
        6
 95
        1
302
GRIDFORMAT
  1
GRIDFORMAT_BEGIN
 90
        0
 91
        1
 62
     0
 92
       -2
340
0
 93
        0
 40
0.045
309
GRIDFORMAT_END
 95
        2
302
GRIDFORMAT
  1
GRIDFORMAT_BEGIN
 90
        0
 91
        1
 62
     0
 92
       -2
340
0
 93
        0
 40
0.045
309
GRIDFORMAT_END
 95
        4
302
GRIDFORMAT
  1
GRIDFORMAT_BEGIN
 90
        0
 91
        1
 62
     0
 92
       -2
340
0
 93
        0
 40
0.045
309
GRIDFORMAT_END
 95
        8
302
GRIDFORMAT
  1
GRIDFORMAT_BEGIN
 90
        0
 91
        1
 62
     0
 92
       -2
340
0
 93
        0
 40
0.045
309
GRIDFORMAT_END
 95
       16
302
GRIDFORMAT
  1
GRIDFORMAT_BEGIN
 90
        0
 91
        1
 62
     0
 92
       -2
340
0
 93
        0
 40
0.045
309
GRIDFORMAT_END
 95
       32
302
GRIDFORMAT
  1
GRIDFORMAT_BEGIN
 90
        0
 91
        1
 62
     0
 92
       -2
340
0
 93
        0
 40
0.045
309
GRIDFORMAT_END
309
TABLEFORMAT_END
  1
CELLSTYLE_BEGIN
 90
        2
 91
        1
300
_HEADER
309
CELLSTYLE_END
300
CELLSTYLE
  1
TABLEFORMAT_BEGIN
 90
        5
170
     1
 91
        0
 92
        0
 62
   257
 93
        1
300
CONTENTFORMAT
  1
CONTENTFORMAT_BEGIN
 90
        0
 91
        0
 92
        4
 93
        0
300

 40
0.0
140
1.0
 94
        2
 62
     0
340
11
144
0.18
309
CONTENTFORMAT_END
171
     1
301
MARGIN
  1
CELLMARGIN_BEGIN
 40
0.06
 40
0.06
 40
0.06
 40
0.06
 40
0.06
 40
0.06
309
CELLMARGIN_END
 94
        6
 95
        1
302
GRIDFORMAT
  1
GRIDFORMAT_BEGIN
 90
        0
 91
        1
 62
     0
 92
       -2
340
0
 93
        0
 40
0.045
309
GRIDFORMAT_END
 95
        2
302
GRIDFORMAT
  1
GRIDFORMAT_BEGIN
 90
        0
 91
        1
 62
     0
 92
       -2
340
0
 93
        0
 40
0.045
309
GRIDFORMAT_END
 95
        4
302
GRIDFORMAT
  1
GRIDFORMAT_BEGIN
 90
        0
 91
        1
 62
     0
 92
       -2
340
0
 93
        0
 40
0.045
309
GRIDFORMAT_END
 95
        8
302
GRIDFORMAT
  1
GRIDFORMAT_BEGIN
 90
        0
 91
        1
 62
     0
 92
       -2
340
0
 93
        0
 40
0.045
309
GRIDFORMAT_END
 95
       16
302
GRIDFORMAT
  1
GRIDFORMAT_BEGIN
 90
        0
 91
        1
 62
     0
 92
       -2
340
0
 93
        0
 40
0.045
309
GRIDFORMAT_END
 95
       32
302
GRIDFORMAT
  1
GRIDFORMAT_BEGIN
 90
        0
 91
        1
 62
     0
 92
       -2
340
0
 93
        0
 40
0.045
309
GRIDFORMAT_END
309
TABLEFORMAT_END
  1
CELLSTYLE_BEGIN
 90
        3
 91
        2
300
_DATA
309
CELLSTYLE_END
  0
XRECORD
  5
1C20
102
{ACAD_REACTORS
330
1C0B
102
}
330
1C0B
100
AcDbXrecord
280
     1
102
ACAD_ROUNDTRIP_PRE2007_TABLESTYLE
 90
        4
 91
        0
  1

 92
        4
 93
        0
  2

 94
        4
 95
        0
  3

  0
ENDSEC
  0
EOF
