  0
SECTION
  2
HEADER
  9
$ACADVER
  1
AC1015
  9
$ACADMAINTVER
 70
     6
  9
$DWGCODEPAGE
  3
ANSI_1252
  9
$INSBASE
 10
0.0
 20
0.0
 30
0.0
  9
$EXTMIN
 10
-0.3511977873369376
 20
-1.067399605476886
 30
0.0
  9
$EXTMAX
 10
0.8168380731250463
 20
0.8031190184812543
 30
0.0
  9
$LIMMIN
 10
0.0
 20
0.0
  9
$LIMMAX
 10
12.0
 20
9.0
  9
$ORTHOMODE
 70
     1
  9
$REGENMODE
 70
     1
  9
$FILLMODE
 70
     1
  9
$QTEXTMODE
 70
     0
  9
$MIRRTEXT
 70
     0
  9
$LTSCALE
 40
1.0
  9
$ATTMODE
 70
     1
  9
$TEXTSIZE
 40
0.2
  9
$TRACEWID
 40
0.05
  9
$TEXTSTYLE
  7
Standard
  9
$CLAYER
  8
0
  9
$CELTYPE
  6
ByLayer
  9
$CECOLOR
 62
   256
  9
$CELTSCALE
 40
1.0
  9
$DISPSILH
 70
     0
  9
$DIMSCALE
 40
1.0
  9
$DIMASZ
 40
0.1
  9
$DIMEXO
 40
0.02
  9
$DIMDLI
 40
0.38
  9
$DIMRND
 40
0.0
  9
$DIMDLE
 40
0.0
  9
$DIMEXE
 40
0.018
  9
$DIMTP
 40
0.0
  9
$DIMTM
 40
0.0
  9
$DIMTXT
 40
0.2
  9
$DIMCEN
 40
0.0
  9
$DIMTSZ
 40
0.0
  9
$DIMTOL
 70
     0
  9
$DIMLIM
 70
     0
  9
$DIMTIH
 70
     0
  9
$DIMTOH
 70
     0
  9
$DIMSE1
 70
     0
  9
$DIMSE2
 70
     0
  9
$DIMTAD
 70
     0
  9
$DIMZIN
 70
     0
  9
$DIMBLK
  1
NONE
  9
$DIMASO
 70
     1
  9
$DIMSHO
 70
     1
  9
$DIMPOST
  1

  9
$DIMAPOST
  1

  9
$DIMALT
 70
     0
  9
$DIMALTD
 70
     2
  9
$DIMALTF
 40
25.4
  9
$DIMLFAC
 40
1.0
  9
$DIMTOFL
 70
     0
  9
$DIMTVP
 40
0.0
  9
$DIMTIX
 70
     0
  9
$DIMSOXD
 70
     0
  9
$DIMSAH
 70
     0
  9
$DIMBLK1
  1

  9
$DIMBLK2
  1

  9
$DIMSTYLE
  2
S&C_cotas
  9
$DIMCLRD
 70
   256
  9
$DIMCLRE
 70
   256
  9
$DIMCLRT
 70
   256
  9
$DIMTFAC
 40
1.0
  9
$DIMGAP
 40
0.0
  9
$DIMJUST
 70
     0
  9
$DIMSD1
 70
     1
  9
$DIMSD2
 70
     1
  9
$DIMTOLJ
 70
     1
  9
$DIMTZIN
 70
     0
  9
$DIMALTZ
 70
     0
  9
$DIMALTTZ
 70
     0
  9
$DIMUPT
 70
     0
  9
$DIMDEC
 70
     0
  9
$DIMTDEC
 70
     0
  9
$DIMALTU
 70
     2
  9
$DIMALTTD
 70
     2
  9
$DIMTXSTY
  7
ARIAL
  9
$DIMAUNIT
 70
     0
  9
$DIMADEC
 70
     2
  9
$DIMALTRND
 40
0.0
  9
$DIMAZIN
 70
     0
  9
$DIMDSEP
 70
    46
  9
$DIMATFIT
 70
     3
  9
$DIMFRAC
 70
     0
  9
$DIMLDRBLK
  1
NONE
  9
$DIMLUNIT
 70
     2
  9
$DIMLWD
 70
    -2
  9
$DIMLWE
 70
    -2
  9
$DIMTMOVE
 70
     0
  9
$LUNITS
 70
     2
  9
$LUPREC
 70
     4
  9
$SKETCHINC
 40
0.1
  9
$FILLETRAD
 40
0.0
  9
$AUNITS
 70
     0
  9
$AUPREC
 70
     0
  9
$MENU
  1
.
  9
$ELEVATION
 40
0.0
  9
$PELEVATION
 40
0.0
  9
$THICKNESS
 40
0.0
  9
$LIMCHECK
 70
     0
  9
$CHAMFERA
 40
0.0
  9
$CHAMFERB
 40
0.0
  9
$CHAMFERC
 40
0.0
  9
$CHAMFERD
 40
0.0
  9
$SKPOLY
 70
     0
  9
$TDCREATE
 40
2453353.758792488
  9
$TDUCREATE
 40
2453353.717125822
  9
$TDUPDATE
 40
2456625.575835139
  9
$TDUUPDATE
 40
2456625.534168472
  9
$TDINDWG
 40
0.1945422801
  9
$TDUSRTIMER
 40
2456625.533017049
  9
$USRTIMER
 70
     1
  9
$ANGBASE
 50
0.0
  9
$ANGDIR
 70
     0
  9
$PDMODE
 70
     0
  9
$PDSIZE
 40
0.0
  9
$PLINEWID
 40
0.0
  9
$SPLFRAME
 70
     0
  9
$SPLINETYPE
 70
     6
  9
$SPLINESEGS
 70
     8
  9
$HANDSEED
  5
1C5D
  9
$SURFTAB1
 70
     6
  9
$SURFTAB2
 70
     6
  9
$SURFTYPE
 70
     6
  9
$SURFU
 70
     6
  9
$SURFV
 70
     6
  9
$UCSBASE
  2

  9
$UCSNAME
  2

  9
$UCSORG
 10
0.0
 20
0.0
 30
0.0
  9
$UCSXDIR
 10
1.0
 20
0.0
 30
0.0
  9
$UCSYDIR
 10
0.0
 20
1.0
 30
0.0
  9
$UCSORTHOREF
  2

  9
$UCSORTHOVIEW
 70
     0
  9
$UCSORGTOP
 10
0.0
 20
0.0
 30
0.0
  9
$UCSORGBOTTOM
 10
0.0
 20
0.0
 30
0.0
  9
$UCSORGLEFT
 10
0.0
 20
0.0
 30
0.0
  9
$UCSORGRIGHT
 10
0.0
 20
0.0
 30
0.0
  9
$UCSORGFRONT
 10
0.0
 20
0.0
 30
0.0
  9
$UCSORGBACK
 10
0.0
 20
0.0
 30
0.0
  9
$PUCSBASE
  2

  9
$PUCSNAME
  2

  9
$PUCSORG
 10
0.0
 20
0.0
 30
0.0
  9
$PUCSXDIR
 10
1.0
 20
0.0
 30
0.0
  9
$PUCSYDIR
 10
0.0
 20
1.0
 30
0.0
  9
$PUCSORTHOREF
  2

  9
$PUCSORTHOVIEW
 70
     0
  9
$PUCSORGTOP
 10
0.0
 20
0.0
 30
0.0
  9
$PUCSORGBOTTOM
 10
0.0
 20
0.0
 30
0.0
  9
$PUCSORGLEFT
 10
0.0
 20
0.0
 30
0.0
  9
$PUCSORGRIGHT
 10
0.0
 20
0.0
 30
0.0
  9
$PUCSORGFRONT
 10
0.0
 20
0.0
 30
0.0
  9
$PUCSORGBACK
 10
0.0
 20
0.0
 30
0.0
  9
$USERI1
 70
     0
  9
$USERI2
 70
     0
  9
$USERI3
 70
     0
  9
$USERI4
 70
     0
  9
$USERI5
 70
     0
  9
$USERR1
 40
0.0
  9
$USERR2
 40
0.0
  9
$USERR3
 40
0.0
  9
$USERR4
 40
0.0
  9
$USERR5
 40
0.0
  9
$WORLDVIEW
 70
     1
  9
$SHADEDGE
 70
     3
  9
$SHADEDIF
 70
    70
  9
$TILEMODE
 70
     1
  9
$MAXACTVP
 70
    64
  9
$PINSBASE
 10
0.0
 20
0.0
 30
0.0
  9
$PLIMCHECK
 70
     0
  9
$PEXTMIN
 10
0.0
 20
0.0
 30
0.0
  9
$PEXTMAX
 10
0.0
 20
0.0
 30
0.0
  9
$PLIMMIN
 10
0.0
 20
0.0
  9
$PLIMMAX
 10
0.0
 20
0.0
  9
$UNITMODE
 70
     0
  9
$VISRETAIN
 70
     1
  9
$PLINEGEN
 70
     0
  9
$PSLTSCALE
 70
     1
  9
$TREEDEPTH
 70
  3020
  9
$CMLSTYLE
  2
Standard
  9
$CMLJUST
 70
     0
  9
$CMLSCALE
 40
1.0
  9
$PROXYGRAPHICS
 70
     1
  9
$MEASUREMENT
 70
     0
  9
$CELWEIGHT
370
    -1
  9
$ENDCAPS
280
     0
  9
$JOINSTYLE
280
     0
  9
$LWDISPLAY
290
     0
  9
$INSUNITS
 70
     1
  9
$HYPERLINKBASE
  1

  9
$STYLESHEET
  1

  9
$XEDIT
290
     0
  9
$CEPSNTYPE
380
     0
  9
$PSTYLEMODE
290
     0
  9
$FINGERPRINTGUID
  2
{8BAE0D3F-6380-4E3D-B0D1-267E31F469C1}
  9
$VERSIONGUID
  2
{8E70422B-437C-47F9-9F9C-DB5263B1F70E}
  9
$EXTNAMES
290
     1
  9
$PSVPSCALE
 40
0.0
  9
$OLESTARTUP
290
     0
  0
ENDSEC
  0
SECTION
  2
CLASSES
  0
CLASS
  1
ACDBDICTIONARYWDFLT
  2
AcDbDictionaryWithDefault
  3
ObjectDBX Classes
 90
        0
280
     0
281
     0
  0
CLASS
  1
ACDBPLACEHOLDER
  2
AcDbPlaceHolder
  3
ObjectDBX Classes
 90
        0
280
     0
281
     0
  0
CLASS
  1
LAYOUT
  2
AcDbLayout
  3
ObjectDBX Classes
 90
        0
280
     0
281
     0
  0
CLASS
  1
DICTIONARYVAR
  2
AcDbDictionaryVar
  3
ObjectDBX Classes
 90
        0
280
     0
281
     0
  0
CLASS
  1
TABLESTYLE
  2
AcDbTableStyle
  3
ObjectDBX Classes
 90
     4095
280
     0
281
     0
  0
CLASS
  1
SCALE
  2
AcDbScale
  3
ObjectDBX Classes
 90
     1153
280
     0
281
     0
  0
CLASS
  1
MATERIAL
  2
AcDbMaterial
  3
ObjectDBX Classes
 90
     1153
280
     0
281
     0
  0
CLASS
  1
MLEADERSTYLE
  2
AcDbMLeaderStyle
  3
ACDB_MLEADERSTYLE_CLASS
 90
     4095
280
     0
281
     0
  0
CLASS
  1
VISUALSTYLE
  2
AcDbVisualStyle
  3
ObjectDBX Classes
 90
     4095
280
     0
281
     0
  0
CLASS
  1
CELLSTYLEMAP
  2
AcDbCellStyleMap
  3
ObjectDBX Classes
 90
     1152
280
     0
281
     0
  0
CLASS
  1
RASTERVARIABLES
  2
AcDbRasterVariables
  3
ISM
 90
        0
280
     0
281
     0
  0
ENDSEC
  0
SECTION
  2
TABLES
  0
TABLE
  2
VPORT
  5
8
330
0
100
AcDbSymbolTable
 70
     2
  0
VPORT
  5
97
330
8
100
AcDbSymbolTableRecord
100
AcDbViewportTableRecord
  2
*Active
 70
     0
 10
0.0
 20
0.0
 11
1.0
 21
1.0
 12
0.4283166568772405
 22
0.0016969939825128
 13
0.0
 23
0.0
 14
0.5
 24
0.5
 15
0.5
 25
0.5
 16
0.0
 26
0.0
 36
1.0
 17
0.0
 27
0.0
 37
0.0
 40
0.6512295352095132
 41
1.987745098039216
 42
50.0
 43
0.0
 44
0.0
 50
0.0
 51
0.0
 71
    16
 72
  1000
 73
     1
 74
     1
 75
     0
 76
     0
 77
     0
 78
     0
281
     0
 65
     0
110
0.0
120
0.0
130
0.0
111
1.0
121
0.0
131
0.0
112
0.0
122
1.0
132
0.0
 79
     0
146
0.0
  0
ENDTAB
  0
TABLE
  2
LTYPE
  5
5
330
0
100
AcDbSymbolTable
 70
     2
  0
LTYPE
  5
14
330
5
100
AcDbSymbolTableRecord
100
AcDbLinetypeTableRecord
  2
ByBlock
 70
     0
  3

 72
    65
 73
     0
 40
0.0
  0
LTYPE
  5
15
330
5
100
AcDbSymbolTableRecord
100
AcDbLinetypeTableRecord
  2
ByLayer
 70
     0
  3

 72
    65
 73
     0
 40
0.0
  0
LTYPE
  5
16
330
5
100
AcDbSymbolTableRecord
100
AcDbLinetypeTableRecord
  2
Continuous
 70
     0
  3
Solid line
 72
    65
 73
     0
 40
0.0
  0
LTYPE
  5
1BEF
330
5
100
AcDbSymbolTableRecord
100
AcDbLinetypeTableRecord
  2
CENTERX2
 70
     0
  3
Center (2x) ________  __  ________  __  _____
 72
    65
 73
     4
 40
2.032
 49
1.27
 74
     4
 75
     0
340
0
 46
1.0
 50
0.0
 44
0.0
 45
0.0
 49
-0.254
 74
     4
 75
     0
340
0
 46
1.0
 50
0.0
 44
0.0
 45
0.0
 49
0.254
 74
     4
 75
     0
340
0
 46
1.0
 50
0.0
 44
0.0
 45
0.0
 49
-0.254
 74
     4
 75
     0
340
0
 46
1.0
 50
0.0
 44
0.0
 45
0.0
  0
ENDTAB
  0
TABLE
  2
LAYER
  5
2
330
0
100
AcDbSymbolTable
 70
     5
  0
LAYER
  5
10
102
{ACAD_XDICTIONARY
360
1BF0
102
}
330
2
100
AcDbSymbolTableRecord
100
AcDbLayerTableRecord
  2
0
 70
     0
 62
     7
  6
Continuous
370
    -3
390
F
  0
LAYER
  5
C1
102
{ACAD_XDICTIONARY
360
1BF1
102
}
330
2
100
AcDbSymbolTableRecord
100
AcDbLayerTableRecord
  2
S&C_cotas
 70
     0
 62
   251
  6
Continuous
370
    -3
390
F
  0
LAYER
  5
CC
330
2
100
AcDbSymbolTableRecord
100
AcDbLayerTableRecord
  2
DEFPOINTS
 70
     0
 62
     7
  6
Continuous
290
     0
370
    -3
390
F
  0
LAYER
  5
100
102
{ACAD_XDICTIONARY
360
1BF2
102
}
330
2
100
AcDbSymbolTableRecord
100
AcDbLayerTableRecord
  2
S&C_vistas
 70
     0
 62
   255
  6
Continuous
370
    -3
390
F
  0
LAYER
  5
EE3
102
{ACAD_XDICTIONARY
360
1BF3
102
}
330
2
100
AcDbSymbolTableRecord
100
AcDbLayerTableRecord
  2
SLD-0
 70
     0
 62
   179
  6
Continuous
370
    -3
390
F
  0
ENDTAB
  0
TABLE
  2
STYLE
  5
3
330
0
100
AcDbSymbolTable
 70
     3
  0
STYLE
  5
11
330
3
100
AcDbSymbolTableRecord
100
AcDbTextStyleTableRecord
  2
Standard
 70
     0
 40
0.0
 41
1.0
 50
0.0
 71
     0
 42
0.2
  3
txt
  4

  0
STYLE
  5
C2
330
3
100
AcDbSymbolTableRecord
100
AcDbTextStyleTableRecord
  2
ARIAL
 70
     0
 40
0.0
 41
1.0
 50
0.0
 71
     0
 42
15.0
  3
ARIAL.TTF
  4

1001
ACAD
1000
Arial
1071
       34
  0
STYLE
  5
B7F
330
3
100
AcDbSymbolTableRecord
100
AcDbTextStyleTableRecord
  2
SLDTEXTSTYLE0
 70
     0
 40
0.0
 41
0.605
 50
0.0
 71
     0
 42
0.2
  3
TXT
  4

  0
ENDTAB
  0
TABLE
  2
VIEW
  5
6
330
0
100
AcDbSymbolTable
 70
     0
  0
ENDTAB
  0
TABLE
  2
UCS
  5
7
330
0
100
AcDbSymbolTable
 70
     0
  0
ENDTAB
  0
TABLE
  2
APPID
  5
9
330
0
100
AcDbSymbolTable
 70
     5
  0
APPID
  5
12
330
9
100
AcDbSymbolTableRecord
100
AcDbRegAppTableRecord
  2
ACAD
 70
     0
  0
APPID
  5
1BEB
330
9
100
AcDbSymbolTableRecord
100
AcDbRegAppTableRecord
  2
ACAD_DSTYLE_DIMJAG
 70
     0
  0
APPID
  5
1BEC
330
9
100
AcDbSymbolTableRecord
100
AcDbRegAppTableRecord
  2
ACAD_DSTYLE_DIMTALN
 70
     0
  0
APPID
  5
1BED
330
9
100
AcDbSymbolTableRecord
100
AcDbRegAppTableRecord
  2
ACAD_EXEMPT_FROM_CAD_STANDARDS
 70
     0
  0
APPID
  5
1BEE
330
9
100
AcDbSymbolTableRecord
100
AcDbRegAppTableRecord
  2
ACAD_MLEADERVER
 70
     0
  0
ENDTAB
  0
TABLE
  2
DIMSTYLE
  5
A
330
0
100
AcDbSymbolTable
 70
     4
100
AcDbDimStyleTable
  0
DIMSTYLE
105
27
330
A
100
AcDbSymbolTableRecord
100
AcDbDimStyleTableRecord
  2
Standard
 70
     0
178
     0
340
11
  0
DIMSTYLE
105
C5
330
A
100
AcDbSymbolTableRecord
100
AcDbDimStyleTableRecord
  2
S&C_cotas
 70
     0
 41
0.1
 42
0.02
 44
0.018
 73
     0
 74
     0
140
0.02
141
0.0
147
0.0
176
   256
177
   256
271
     0
178
   256
179
     2
271
     0
272
     0
281
     1
282
     1
340
C2
341
1BF4
342
1BF4
1001
ACAD_DSTYLE_DIMJAG
1070
   388
1040
1.5
1001
ACAD_DSTYLE_DIMTALN
1070
   392
1070
     0
  0
DIMSTYLE
105
5C6
330
A
100
AcDbSymbolTableRecord
100
AcDbDimStyleTableRecord
  2
Tarifa ACAD
 70
     0
 41
0.5
 42
1.0
 45
0.5
 73
     0
 74
     0
 75
     1
 76
     1
 77
     1
140
1.5
141
1.0
147
1.0
172
     1
178
     0
271
     0
272
     0
340
11
341
1BF7
342
1BF7
  0
DIMSTYLE
105
EE4
330
A
100
AcDbSymbolTableRecord
100
AcDbDimStyleTableRecord
  2
SLDDIMSTYLE0
 70
     0
 41
3.0
 44
0.0
 45
0.000000001
 73
     0
 74
     0
 77
     1
 78
    12
 79
     3
140
3.0
144
0.1
147
0.75
173
     1
178
     0
271
     2
272
     2
284
    12
340
B7F
  0
ENDTAB
  0
TABLE
  2
BLOCK_RECORD
  5
1
330
0
100
AcDbSymbolTable
 70
     3
  0
BLOCK_RECORD
  5
1F
330
1
100
AcDbSymbolTableRecord
100
AcDbBlockTableRecord
  2
*Model_Space
340
22
  0
BLOCK_RECORD
  5
73
330
1
100
AcDbSymbolTableRecord
100
AcDbBlockTableRecord
  2
*Paper_Space
340
74
  0
BLOCK_RECORD
  5
1BF4
330
1
100
AcDbSymbolTableRecord
100
AcDbBlockTableRecord
  2
_NONE
340
0
  0
BLOCK_RECORD
  5
1BF7
330
1
100
AcDbSymbolTableRecord
100
AcDbBlockTableRecord
  2
_DOT
340
0
  0
BLOCK_RECORD
  5
BE
330
1
100
AcDbSymbolTableRecord
100
AcDbBlockTableRecord
  2
*Paper_Space2
340
BF
  0
ENDTAB
  0
ENDSEC
  0
SECTION
  2
BLOCKS
  0
BLOCK
  5
20
330
1F
100
AcDbEntity
  8
0
100
AcDbBlockBegin
  2
*Model_Space
 70
     0
 10
0.0
 20
0.0
 30
0.0
  3
*Model_Space
  1

  0
ENDBLK
  5
21
330
1F
100
AcDbEntity
  8
0
100
AcDbBlockEnd
  0
BLOCK
  5
75
330
73
100
AcDbEntity
 67
     1
  8
0
100
AcDbBlockBegin
  2
*Paper_Space
 70
     0
 10
0.0
 20
0.0
 30
0.0
  3
*Paper_Space
  1

  0
ENDBLK
  5
76
330
73
100
AcDbEntity
 67
     1
  8
0
100
AcDbBlockEnd
  0
BLOCK
  5
1BF5
330
1BF4
100
AcDbEntity
  8
0
100
AcDbBlockBegin
  2
_NONE
 70
     0
 10
0.0
 20
0.0
 30
0.0
  3
_NONE
  1

  0
ENDBLK
  5
1BF6
330
1BF4
100
AcDbEntity
  8
0
100
AcDbBlockEnd
  0
BLOCK
  5
1BF8
330
1BF7
100
AcDbEntity
  8
0
100
AcDbBlockBegin
  2
_DOT
 70
     0
 10
0.0
 20
0.0
 30
0.0
  3
_DOT
  1

  0
LWPOLYLINE
  5
C13
330
1BF7
100
AcDbEntity
  8
0
  6
ByBlock
 62
     0
100
AcDbPolyline
 90
        2
 70
     1
 43
0.5
 10
-0.25
 20
0.0
 42
1.0
 10
0.25
 20
0.0
 42
1.0
  0
LINE
  5
C14
330
1BF7
100
AcDbEntity
  8
0
  6
ByBlock
 62
     0
370
    -2
100
AcDbLine
 10
-0.5
 20
0.0
 30
0.0
 11
-1.0
 21
0.0
 31
0.0
  0
ENDBLK
  5
1BF9
330
1BF7
100
AcDbEntity
  8
0
100
AcDbBlockEnd
  0
BLOCK
  5
1BFF
330
BE
100
AcDbEntity
  8
0
100
AcDbBlockBegin
  2
*Paper_Space2
 70
     0
 10
0.0
 20
0.0
 30
0.0
  3
*Paper_Space2
  1

  0
ENDBLK
  5
1C00
330
BE
100
AcDbEntity
  8
0
100
AcDbBlockEnd
  0
ENDSEC
  0
SECTION
  2
ENTITIES
  0
MTEXT
  5
C0C
330
1F
100
AcDbEntity
  8
S&C_cotas
  6
Continuous
 62
   251
100
AcDbMText
 10
-0.3273659971445202
 20
0.3751221978759514
 30
0.0
 40
0.02
 41
0.0
 71
     5
 72
     1
  1
Min.50/ Máx.500 cm / Min.19.7/Máx.196.8"
  7
ARIAL
 11
0.0
 21
1.0
 31
0.0
 73
     1
 44
1.0
  0
CIRCLE
  5
C21
330
1F
100
AcDbEntity
  8
0
  6
Continuous
 62
     7
370
    15
100
AcDbCircle
 10
0.367125444244802
 20
-1.048438931319484
 30
0.0
 40
0.0068469101123583
  0
CIRCLE
  5
C22
330
1F
100
AcDbEntity
  8
0
  6
Continuous
 62
     7
370
    15
100
AcDbCircle
 10
0.367125444244802
 20
-1.048438931319484
 30
0.0
 40
0.0057935393258504
  0
CIRCLE
  5
C23
330
1F
100
AcDbEntity
  8
0
  6
Continuous
 62
     7
370
    15
100
AcDbCircle
 10
0.367125444244802
 20
-1.048438931319484
 30
0.0
 40
0.0005793539325794
  0
CIRCLE
  5
C24
330
1F
100
AcDbEntity
  8
0
  6
Continuous
 62
     7
370
    15
100
AcDbCircle
 10
-0.0094496470637222
 20
-0.3961917403083344
 30
0.0
 40
0.0068469101123583
  0
CIRCLE
  5
C25
330
1F
100
AcDbEntity
  8
0
  6
Continuous
 62
     7
370
    15
100
AcDbCircle
 10
-0.0094496470637222
 20
-0.3961917403083344
 30
0.0
 40
0.0057935393258504
  0
CIRCLE
  5
C26
330
1F
100
AcDbEntity
  8
0
  6
Continuous
 62
     7
370
    15
100
AcDbCircle
 10
-0.0094496470637222
 20
-0.3961917403083344
 30
0.0
 40
0.0005793539325794
  0
CIRCLE
  5
C27
330
1F
100
AcDbEntity
  8
0
  6
Continuous
 62
     7
370
    15
100
AcDbCircle
 10
0.743700535553298
 20
-0.3961917403083344
 30
0.0
 40
0.0068469101123583
  0
CIRCLE
  5
C28
330
1F
100
AcDbEntity
  8
0
  6
Continuous
 62
     7
370
    15
100
AcDbCircle
 10
0.743700535553298
 20
-0.3961917403083344
 30
0.0
 40
0.0005793539325794
  0
CIRCLE
  5
C29
330
1F
100
AcDbEntity
  8
0
  6
Continuous
 62
     7
370
    15
100
AcDbCircle
 10
0.743700535553298
 20
-0.3961917403083344
 30
0.0
 40
0.0057935393258504
  0
LINE
  5
C2A
330
1F
100
AcDbEntity
  8
0
  6
Continuous
 62
     7
370
    15
100
AcDbLine
 10
-0.0155065182101768
 20
-0.399384602301384
 30
0.0
 11
-0.0196443836124769
 21
-0.396995609396243
 31
0.0
  0
LINE
  5
C2B
330
1F
100
AcDbEntity
  8
0
  6
Continuous
 62
     7
370
    15
100
AcDbLine
 10
0.0068107463486302
 20
-0.4122694858006646
 30
0.0
 11
-0.0091863120756588
 21
-0.4030335869344436
 31
0.0
  0
LINE
  5
C2C
330
1F
100
AcDbEntity
  8
0
  6
Continuous
 62
     7
370
    15
100
AcDbLine
 10
-0.0097129906880622
 20
-0.3893498945602142
 30
0.0
 11
-0.0138508442866265
 21
-0.3869609049282345
 31
0.0
  0
LINE
  5
C2D
330
1F
100
AcDbEntity
  8
0
  6
Continuous
 62
     7
370
    15
100
AcDbLine
 10
0.0126042856744806
 20
-0.4022347813326543
 30
0.0
 11
-0.0033927531606568
 21
-0.3929988791932739
 31
0.0
  0
LINE
  5
C2E
330
1F
100
AcDbEntity
  8
0
  6
Continuous
 62
     7
370
    15
100
AcDbLine
 10
-0.0052928709631348
 20
-0.4016324749066544
 30
0.0
 11
0.0027259376877811
 21
-0.4062621369778945
 31
0.0
  0
LINE
  5
C2F
330
1F
100
AcDbEntity
  8
0
  6
Continuous
 62
     7
370
    15
100
AcDbLine
 10
-0.0178729377564406
 20
-0.3943693706951935
 30
0.0
 11
-0.0162398248625135
 21
-0.3953122373793032
 31
0.0
  0
ARC
  5
C30
330
1F
100
AcDbEntity
  8
0
  6
Continuous
 62
     7
370
    15
100
AcDbCircle
 10
-0.0030639260386391
 20
-0.3998785380611635
 30
0.0
 40
0.0158005617977354
100
AcDbArc
 50
140.4059317732435
 51
159.5940682269913
  0
LINE
  5
C31
330
1F
100
AcDbEntity
  8
0
  6
Continuous
 62
     7
370
    15
100
AcDbLine
 10
-0.0136064004076712
 20
-0.3907510065878934
 30
0.0
 11
-0.0152395107901708
 21
-0.3898081413914843
 31
0.0
  0
LINE
  5
C32
330
1F
100
AcDbEntity
  8
0
  6
Continuous
 62
     7
370
    15
100
AcDbLine
 10
0.0053593646540784
 20
-0.4017009076743043
 30
0.0
 11
-0.002659446508265
 21
-0.3970712441153529
 31
0.0
  0
ARC
  5
C33
330
1F
100
AcDbEntity
  8
0
  6
Continuous
 62
     7
370
    15
100
AcDbCircle
 10
-0.0094496470637222
 20
-0.3961917403083344
 30
0.0
 40
0.0158005617977354
100
AcDbArc
 50
320.4059317732435
 51
339.5940682269912
  0
LINE
  5
C34
330
1F
100
AcDbEntity
  8
0
  6
Continuous
 62
     7
370
    15
100
AcDbLine
 10
-0.0208010650148975
 20
-0.3926788156342736
 30
0.0
 11
-0.0181676380485993
 21
-0.3881175863305735
 31
0.0
  0
ARC
  5
C35
330
1F
100
AcDbEntity
  8
0
  6
Continuous
 62
     7
370
    15
100
AcDbCircle
 10
-0.0180643274326866
 20
-0.3942588718140941
 30
0.0
 40
0.003160112359571
100
AcDbArc
 50
149.9999999993048
 51
239.9999999992826
  0
ARC
  5
C36
330
1F
100
AcDbEntity
  8
0
  6
Continuous
 62
     7
370
    15
100
AcDbCircle
 10
-0.0154309004664168
 20
-0.3896976425103832
 30
0.0
 40
0.0031601123595322
100
AcDbArc
 50
59.99999999949347
 51
149.9999999995298
  0
LWPOLYLINE
  5
C37
330
1F
100
AcDbEntity
  8
0
  6
Continuous
 62
     7
370
    15
100
AcDbPolyline
 90
        8
 70
   128
 43
0.0
 10
0.0104597388142014
 20
-0.4143762325886128
 10
0.010441373970163
 20
-0.4143656374862441
 10
0.0102442265847142
 20
-0.4142518068462741
 10
0.0098418952324795
 20
-0.4140195151139234
 10
0.0092583640858055
 20
-0.4136826222529144
 10
0.0085285734377538
 20
-0.4132612825023335
 10
0.0076961280205654
 20
-0.4127806572680038
 10
0.0068107541810281
 20
-0.4122694867462033
  0
LWPOLYLINE
  5
C38
330
1F
100
AcDbEntity
  8
0
  6
Continuous
 62
     7
370
    15
100
AcDbPolyline
 90
        8
 70
   128
 43
0.0
 10
0.0162532663362884
 20
-0.4043415248474431
 10
0.016234932885165
 20
-0.4043309297450742
 10
0.0160377854997162
 20
-0.4042171148013842
 10
0.0156354227545665
 20
-0.4039848073727536
 10
0.0150519230008075
 20
-0.4036479145117429
 10
0.0143221323528127
 20
-0.4032265747611637
 10
0.0134896555426525
 20
-0.4027459495268342
 10
0.012604281703172
 20
-0.4022347790050335
  0
LINE
  5
C39
330
1F
100
AcDbEntity
  8
0
  6
Continuous
 62
     7
370
    15
100
AcDbLine
 10
0.7439638838959828
 20
-0.3893498945602142
 30
0.0
 11
0.7481017327762023
 21
-0.3869609049282345
 31
0.0
  0
LINE
  5
C3A
330
1F
100
AcDbEntity
  8
0
  6
Continuous
 62
     7
370
    15
100
AcDbLine
 10
0.7216466028150952
 20
-0.4022347813326543
 30
0.0
 11
0.7376436463685783
 21
-0.3929988791932739
 31
0.0
  0
LINE
  5
C3B
330
1F
100
AcDbEntity
  8
0
  6
Continuous
 62
     7
370
    15
100
AcDbLine
 10
0.7497574114180698
 20
-0.399384602301384
 30
0.0
 11
0.7538952721020242
 21
-0.396995609396243
 31
0.0
  0
LINE
  5
C3C
330
1F
100
AcDbEntity
  8
0
  6
Continuous
 62
     7
370
    15
100
AcDbLine
 10
0.7274401421409464
 20
-0.4122694858006646
 30
0.0
 11
0.7434372052836087
 21
-0.4030335869344436
 31
0.0
  0
LINE
  5
C3D
330
1F
100
AcDbEntity
  8
0
  6
Continuous
 62
     7
370
    15
100
AcDbLine
 10
0.736910339716214
 20
-0.3970712441153529
 30
0.0
 11
0.7288915238354956
 21
-0.4017009076743043
 31
0.0
  0
LINE
  5
C3E
330
1F
100
AcDbEntity
  8
0
  6
Continuous
 62
     7
370
    15
100
AcDbLine
 10
0.7494903992797182
 20
-0.3898081413914843
 30
0.0
 11
0.7478572936156203
 21
-0.3907510065878934
 31
0.0
  0
ARC
  5
C3F
330
1F
100
AcDbEntity
  8
0
  6
Continuous
 62
     7
370
    15
100
AcDbCircle
 10
0.7373148145282149
 20
-0.3998785380611635
 30
0.0
 40
0.0158005617977688
100
AcDbArc
 50
20.40593177318212
 51
39.59406822692988
  0
LINE
  5
C40
330
1F
100
AcDbEntity
  8
0
  6
Continuous
 62
     7
370
    15
100
AcDbLine
 10
0.7504907180704616
 20
-0.3953122373793032
 30
0.0
 11
0.7521238262460164
 21
-0.3943693706951935
 31
0.0
  0
LINE
  5
C41
330
1F
100
AcDbEntity
  8
0
  6
Continuous
 62
     7
370
    15
100
AcDbLine
 10
0.7315249508017947
 20
-0.4062621369778945
 30
0.0
 11
0.7395437641710847
 21
-0.4016324749066544
 31
0.0
  0
ARC
  5
C42
330
1F
100
AcDbEntity
  8
0
  6
Continuous
 62
     7
370
    15
100
AcDbCircle
 10
0.743700535553298
 20
-0.3961917403083344
 30
0.0
 40
0.0158005617977688
100
AcDbArc
 50
200.4059317731821
 51
219.5940682269299
  0
LINE
  5
C43
330
1F
100
AcDbEntity
  8
0
  6
Continuous
 62
     7
370
    15
100
AcDbLine
 10
0.7524185265381462
 20
-0.3881175863305735
 30
0.0
 11
0.7550519535044449
 21
-0.3926788156342736
 31
0.0
  0
ARC
  5
C44
330
1F
100
AcDbEntity
  8
0
  6
Continuous
 62
     7
370
    15
100
AcDbCircle
 10
0.7496817889559642
 20
-0.3896976425103832
 30
0.0
 40
0.003160112359571
100
AcDbArc
 50
30.00000000069515
 51
120.0000000007315
  0
ARC
  5
C45
330
1F
100
AcDbEntity
  8
0
  6
Continuous
 62
     7
370
    15
100
AcDbCircle
 10
0.7523152159222624
 20
-0.3942588718140941
 30
0.0
 40
0.003160112359518
100
AcDbArc
 50
300.0000000000603
 51
30.00000000003804
  0
LWPOLYLINE
  5
C46
330
1F
100
AcDbEntity
  8
0
  6
Continuous
 62
     7
370
    15
100
AcDbPolyline
 90
        8
 70
   128
 43
0.0
 10
0.7179976268716037
 20
-0.4043415248474431
 10
0.718015960322784
 20
-0.4043309297450742
 10
0.7182131077082332
 20
-0.4042171148013842
 10
0.7186154704533816
 20
-0.4039848073727536
 10
0.7191989702070842
 20
-0.4036479145117429
 10
0.7199287608551364
 20
-0.4032265747611637
 10
0.7207612376652974
 20
-0.4027459495268342
 10
0.721646611504777
 20
-0.4022347790050335
  0
LWPOLYLINE
  5
C47
330
1F
100
AcDbEntity
  8
0
  6
Continuous
 62
     7
370
    15
100
AcDbPolyline
 90
        8
 70
   128
 43
0.0
 10
0.7237911543937476
 20
-0.4143762325886128
 10
0.7238094878448711
 20
-0.4143656374862441
 10
0.7240066666232357
 20
-0.4142518068462741
 10
0.7244089979754704
 20
-0.4140195151139234
 10
0.7249925291220867
 20
-0.4136826222529144
 10
0.7257223197701383
 20
-0.4132612825023335
 10
0.7265547651873836
 20
-0.4127806572680038
 10
0.7274401390268641
 20
-0.4122694867462033
  0
LINE
  5
C48
330
1F
100
AcDbEntity
  8
0
  6
Continuous
 62
     7
370
    15
100
AcDbLine
 10
0.3729189839363545
 20
-1.052087922846064
 30
0.0
 11
0.3729189835706532
 21
-1.056865897611544
 31
0.0
  0
LINE
  5
C49
330
1F
100
AcDbEntity
  8
0
  6
Continuous
 62
     7
370
    15
100
AcDbLine
 10
0.3729189835706532
 20
-1.026318144802704
 30
0.0
 11
0.3729189839363545
 21
-1.044789953579824
 31
0.0
  0
LINE
  5
C4A
330
1F
100
AcDbEntity
  8
0
  6
Continuous
 62
     7
370
    15
100
AcDbLine
 10
0.3613319049182411
 20
-1.052087922846064
 30
0.0
 11
0.3613319049189232
 21
-1.056865897611544
 31
0.0
  0
LINE
  5
C4B
330
1F
100
AcDbEntity
  8
0
  6
Continuous
 62
     7
370
    15
100
AcDbLine
 10
0.3613319049189232
 20
-1.026318144802704
 30
0.0
 11
0.3613319049182411
 21
-1.044789953579824
 31
0.0
  0
LINE
  5
C4C
330
1F
100
AcDbEntity
  8
0
  6
Continuous
 62
     7
370
    15
100
AcDbLine
 10
0.3697588710588451
 20
-1.042118700685424
 30
0.0
 11
0.3697588712111002
 21
-1.032859367283954
 31
0.0
  0
LINE
  5
C4D
330
1F
100
AcDbEntity
  8
0
  6
Continuous
 62
     7
370
    15
100
AcDbLine
 10
0.3697588712111002
 20
-1.056644899849464
 30
0.0
 11
0.3697588710588451
 21
-1.054759144347434
 31
0.0
  0
ARC
  5
C4E
330
1F
100
AcDbEntity
  8
0
  6
Continuous
 62
     7
370
    15
100
AcDbCircle
 10
0.367125444244802
 20
-1.041065335813934
 30
0.0
 40
0.0158005617977374
100
AcDbArc
 50
260.4059317731078
 51
279.5940682268395
  0
LINE
  5
C4F
330
1F
100
AcDbEntity
  8
0
  6
Continuous
 62
     7
370
    15
100
AcDbLine
 10
0.364492017243943
 20
-1.054759144347434
 30
0.0
 11
0.3644920172784762
 21
-1.056644899849464
 31
0.0
  0
LINE
  5
C50
330
1F
100
AcDbEntity
  8
0
  6
Continuous
 62
     7
370
    15
100
AcDbLine
 10
0.3644920172784762
 20
-1.032859367283954
 30
0.0
 11
0.364492017243943
 21
-1.042118700685424
 31
0.0
  0
ARC
  5
C51
330
1F
100
AcDbEntity
  8
0
  6
Continuous
 62
     7
370
    15
100
AcDbCircle
 10
0.367125444244802
 20
-1.048438931319484
 30
0.0
 40
0.0158005617977374
100
AcDbArc
 50
80.4059317731078
 51
99.59406822682344
  0
LINE
  5
C52
330
1F
100
AcDbEntity
  8
0
  6
Continuous
 62
     7
370
    15
100
AcDbLine
 10
0.3697588712111002
 20
-1.060026009971185
 30
0.0
 11
0.3644920172784762
 21
-1.060026009971185
 31
0.0
  0
ARC
  5
C53
330
1F
100
AcDbEntity
  8
0
  6
Continuous
 62
     7
370
    15
100
AcDbCircle
 10
0.3697588712111002
 20
-1.056865897611544
 30
0.0
 40
0.0031601123595237
100
AcDbArc
 50
270.0
 51
0.0
  0
ARC
  5
C54
330
1F
100
AcDbEntity
  8
0
  6
Continuous
 62
     7
370
    15
100
AcDbCircle
 10
0.3644920172784762
 20
-1.056865897611544
 30
0.0
 40
0.0031601123595522
100
AcDbArc
 50
180.0
 51
270.0
  0
LINE
  5
C55
330
1F
100
AcDbEntity
  8
0
  6
Continuous
 62
     7
370
    15
100
AcDbLine
 10
0.3729189835706532
 20
-1.022104661656674
 30
0.0
 11
0.3729189835706532
 21
-1.026318144802704
 31
0.0
  0
LINE
  5
C56
330
1F
100
AcDbEntity
  8
0
  6
Continuous
 62
     7
370
    15
100
AcDbLine
 10
0.3613319049189232
 20
-1.022104661656674
 30
0.0
 11
0.3613319049189232
 21
-1.026318144802704
 31
0.0
  0
ARC
  5
C58
330
1F
100
AcDbEntity
  8
0
  6
Continuous
 62
     7
370
    15
100
AcDbCircle
 10
0.3697588712111002
 20
-1.064239493117334
 30
0.0
 40
0.0031601123595237
100
AcDbArc
 50
270.0
 51
0.0
  0
LINE
  5
C59
330
1F
100
AcDbEntity
  8
0
  6
Continuous
 62
     7
370
    15
100
AcDbLine
 10
0.3697588712111002
 20
-1.067399605476854
 30
0.0
 11
0.3644920172784762
 21
-1.067399605476854
 31
0.0
  0
LINE
  5
C5A
330
1F
100
AcDbEntity
  8
0
  6
Continuous
 62
     7
370
    15
100
AcDbLine
 10
0.3729189835706532
 20
-1.056865897611544
 30
0.0
 11
0.3729189835706532
 21
-1.064239493117334
 31
0.0
  0
LINE
  5
C5B
330
1F
100
AcDbEntity
  8
0
  6
Continuous
 62
     7
370
    15
100
AcDbLine
 10
0.3697588712111002
 20
-1.064018495355135
 30
0.0
 11
0.3697588712111002
 21
-1.060026009971185
 31
0.0
  0
ARC
  5
C5C
330
1F
100
AcDbEntity
  8
0
  6
Continuous
 62
     7
370
    15
100
AcDbCircle
 10
0.367125444244802
 20
-1.048438931319484
 30
0.0
 40
0.0158005617977374
100
AcDbArc
 50
260.4059317731078
 51
279.5940682268235
  0
LINE
  5
C5D
330
1F
100
AcDbEntity
  8
0
  6
Continuous
 62
     7
370
    15
100
AcDbLine
 10
0.3644920172784762
 20
-1.060026009971185
 30
0.0
 11
0.3644920172784762
 21
-1.064018495355135
 31
0.0
  0
LINE
  5
C5F
330
1F
100
AcDbEntity
  8
0
  6
Continuous
 62
     7
370
    15
100
AcDbLine
 10
0.3613319049189232
 20
-1.056865897611544
 30
0.0
 11
0.3613319049189232
 21
-1.064239493117334
 31
0.0
  0
ARC
  5
C60
330
1F
100
AcDbEntity
  8
0
  6
Continuous
 62
     7
370
    15
100
AcDbCircle
 10
0.3644920172784762
 20
-1.064239493117334
 30
0.0
 40
0.0031601123595522
100
AcDbArc
 50
180.0
 51
270.0
  0
ARC
  5
C62
330
1F
100
AcDbEntity
  8
0
  6
Continuous
 62
     7
370
    15
100
AcDbCircle
 10
-0.0244500484577981
 20
-0.3905720740612544
 30
0.0
 40
0.003160112359571
100
AcDbArc
 50
149.9999999993048
 51
239.999999999325
  0
LINE
  5
C63
330
1F
100
AcDbEntity
  8
0
  6
Continuous
 62
     7
370
    15
100
AcDbLine
 10
-0.0271867860399806
 20
-0.3889920178814444
 30
0.0
 11
-0.0245533590737108
 21
-0.3844307885778543
 31
0.0
  0
LINE
  5
C64
330
1F
100
AcDbEntity
  8
0
  6
Continuous
 62
     7
370
    15
100
AcDbLine
 10
-0.0196443836124769
 20
-0.396995609396243
 30
0.0
 11
-0.0260301046375884
 21
-0.3933088116434137
 31
0.0
  0
LINE
  5
C65
330
1F
100
AcDbEntity
  8
0
  6
Continuous
 62
     7
370
    15
100
AcDbLine
 10
-0.0242586587815521
 20
-0.3906825729423536
 30
0.0
 11
-0.0208010650148975
 21
-0.3926788156342736
 31
0.0
  0
ARC
  5
C66
330
1F
100
AcDbEntity
  8
0
  6
Continuous
 62
     7
370
    15
100
AcDbCircle
 10
-0.0094496470637222
 20
-0.3961917403083344
 30
0.0
 40
0.0158005617977354
100
AcDbArc
 50
140.4059317732435
 51
159.5940682269913
  0
LINE
  5
C67
330
1F
100
AcDbEntity
  8
0
  6
Continuous
 62
     7
370
    15
100
AcDbLine
 10
-0.0181676380485993
 20
-0.3881175863305735
 30
0.0
 11
-0.0216252318152823
 21
-0.3861213436387635
 31
0.0
  0
LINE
  5
C69
330
1F
100
AcDbEntity
  8
0
  6
Continuous
 62
     7
370
    15
100
AcDbLine
 10
-0.0138508442866265
 20
-0.3869609049282345
 30
0.0
 11
-0.020236565311738
 21
-0.3832741071754034
 31
0.0
  0
ARC
  5
C6A
330
1F
100
AcDbEntity
  8
0
  6
Continuous
 62
     7
370
    15
100
AcDbCircle
 10
-0.0218166214914999
 20
-0.386010844757554
 30
0.0
 40
0.0031601123595322
100
AcDbArc
 50
59.99999999949347
 51
149.9999999995298
  0
ARC
  5
C6C
330
1F
100
AcDbEntity
  8
0
  6
Continuous
 62
     7
370
    15
100
AcDbCircle
 10
0.7560675099810756
 20
-0.386010844757554
 30
0.0
 40
0.003160112359571
100
AcDbArc
 50
30.00000000069515
 51
120.0000000007315
  0
LINE
  5
C6D
330
1F
100
AcDbEntity
  8
0
  6
Continuous
 62
     7
370
    15
100
AcDbLine
 10
0.7588042475632581
 20
-0.3844307885778543
 30
0.0
 11
0.7614376745295564
 21
-0.3889920178814444
 31
0.0
  0
LINE
  5
C6E
330
1F
100
AcDbEntity
  8
0
  6
Continuous
 62
     7
370
    15
100
AcDbLine
 10
0.7481017327762023
 20
-0.3869609049282345
 30
0.0
 11
0.7544874538013138
 21
-0.3832741071754034
 31
0.0
  0
LINE
  5
C6F
330
1F
100
AcDbEntity
  8
0
  6
Continuous
 62
     7
370
    15
100
AcDbLine
 10
0.7558761203048292
 20
-0.3861213436386535
 30
0.0
 11
0.7524185265381462
 21
-0.3881175863305735
 31
0.0
  0
ARC
  5
C70
330
1F
100
AcDbEntity
  8
0
  6
Continuous
 62
     7
370
    15
100
AcDbCircle
 10
0.743700535553298
 20
-0.3961917403083344
 30
0.0
 40
0.0158005617977688
100
AcDbArc
 50
20.40593177318212
 51
39.59406822692988
  0
LINE
  5
C71
330
1F
100
AcDbEntity
  8
0
  6
Continuous
 62
     7
370
    15
100
AcDbLine
 10
0.7550519535044449
 20
-0.3926788156342736
 30
0.0
 11
0.7585095472711278
 21
-0.3906825729423536
 31
0.0
  0
LINE
  5
C73
330
1F
100
AcDbEntity
  8
0
  6
Continuous
 62
     7
370
    15
100
AcDbLine
 10
0.7538952721020242
 20
-0.396995609396243
 30
0.0
 11
0.7602809931271357
 21
-0.3933088116434137
 31
0.0
  0
ARC
  5
C74
330
1F
100
AcDbEntity
  8
0
  6
Continuous
 62
     7
370
    15
100
AcDbCircle
 10
0.7587009369473738
 20
-0.3905720740612544
 30
0.0
 40
0.003160112359518
100
AcDbArc
 50
300.0000000000603
 51
30.00000000008032
  0
ARC
  5
C75
330
1F
100
AcDbEntity
  8
0
  6
Continuous
 62
     7
370
    15
100
AcDbCircle
 10
0.367125444244802
 20
-1.048438931319484
 30
0.0
 40
0.0110603932584411
100
AcDbArc
 50
301.5881355052029
 51
359.9999999999961
  0
ARC
  5
C76
330
1F
100
AcDbEntity
  8
0
  6
Continuous
 62
     7
370
    15
100
AcDbCircle
 10
0.367125444244802
 20
-1.048438931319484
 30
0.0
 40
0.0110603932584411
100
AcDbArc
 50
121.5881355052029
 51
238.4118644947893
  0
ARC
  5
C77
330
1F
100
AcDbEntity
  8
0
  6
Continuous
 62
     7
370
    15
100
AcDbCircle
 10
0.367125444244802
 20
-1.048438931319484
 30
0.0
 40
0.0110603932584183
100
AcDbArc
 50
0.0
 51
58.4118644947932
  0
ARC
  5
C78
330
1F
100
AcDbEntity
  8
0
  6
Continuous
 62
     7
370
    15
100
AcDbCircle
 10
-0.0094496470637222
 20
-0.3961917403083344
 30
0.0
 40
0.0110603932584137
100
AcDbArc
 50
181.5881355051831
 51
239.9999999999474
  0
ARC
  5
C79
330
1F
100
AcDbEntity
  8
0
  6
Continuous
 62
     7
370
    15
100
AcDbCircle
 10
-0.0094496470637222
 20
-0.3961917403083344
 30
0.0
 40
0.0110603932584137
100
AcDbArc
 50
1.588135505183145
 51
118.4118644947644
  0
ARC
  5
C7A
330
1F
100
AcDbEntity
  8
0
  6
Continuous
 62
     7
370
    15
100
AcDbCircle
 10
-0.0094496470637222
 20
-0.3961917403083344
 30
0.0
 40
0.0110603932584398
100
AcDbArc
 50
239.9999999999792
 51
298.4118644947818
  0
ARC
  5
C7B
330
1F
100
AcDbEntity
  8
0
  6
Continuous
 62
     7
370
    15
100
AcDbCircle
 10
0.743700535553298
 20
-0.3961917403083344
 30
0.0
 40
0.0110603932584376
100
AcDbArc
 50
61.58813550518613
 51
119.9999999999888
  0
ARC
  5
C7C
330
1F
100
AcDbEntity
  8
0
  6
Continuous
 62
     7
370
    15
100
AcDbCircle
 10
0.743700535553298
 20
-0.3961917403083344
 30
0.0
 40
0.0110603932584376
100
AcDbArc
 50
241.5881355051861
 51
358.411864494753
  0
ARC
  5
C7D
330
1F
100
AcDbEntity
  8
0
  6
Continuous
 62
     7
370
    15
100
AcDbCircle
 10
0.743700535553298
 20
-0.3961917403083344
 30
0.0
 40
0.0110603932584398
100
AcDbArc
 50
120.0000000000208
 51
178.411864494785
  0
ARC
  5
C7E
330
1F
100
AcDbEntity
  8
0
  6
Continuous
 62
     7
370
    15
100
AcDbCircle
 10
0.367125444244802
 20
-0.6136074706453829
 30
0.0
 40
0.4102879213483277
100
AcDbArc
 50
180.0
 51
269.1909184579748
  0
ARC
  5
C7F
330
1F
100
AcDbEntity
  8
0
  6
Continuous
 62
     7
370
    15
100
AcDbCircle
 10
0.367125444244802
 20
-0.6136074706453829
 30
0.0
 40
0.4102879213483305
100
AcDbArc
 50
270.8090815420235
 51
29.19091845794765
  0
ARC
  5
C80
330
1F
100
AcDbEntity
  8
0
  6
Continuous
 62
     7
370
    15
100
AcDbCircle
 10
0.367125444244802
 20
-0.6136074706453829
 30
0.0
 40
0.410287921348331
100
AcDbArc
 50
30.80908154202146
 51
149.1909184579931
  0
ARC
  5
C81
330
1F
100
AcDbEntity
  8
0
  6
Continuous
 62
     7
370
    15
100
AcDbCircle
 10
0.367125444244802
 20
-0.6136074706453829
 30
0.0
 40
0.4102879213483068
100
AcDbArc
 50
150.809081542056
 51
180.0000000000053
  0
ARC
  5
C91
330
1F
100
AcDbEntity
  8
0
  6
Continuous
 62
     7
370
    15
100
AcDbCircle
 10
0.367125444244802
 20
-0.6136074706453829
 30
0.0
 40
0.449789325842687
100
AcDbArc
 50
180.0
 51
269.2619777477935
  0
ARC
  5
C93
330
1F
100
AcDbEntity
  8
0
  6
Continuous
 62
     7
370
    15
100
AcDbCircle
 10
0.367125444244802
 20
-0.6136074706453829
 30
0.0
 40
0.4497893258426529
100
AcDbArc
 50
270.738022252206
 51
29.26197774775957
  0
ARC
  5
C95
330
1F
100
AcDbEntity
  8
0
  6
Continuous
 62
     7
370
    15
100
AcDbCircle
 10
0.367125444244802
 20
-0.6136074706453829
 30
0.0
 40
0.4497893258426724
100
AcDbArc
 50
30.73802225221107
 51
149.2619777477832
  0
ARC
  5
C97
330
1F
100
AcDbEntity
  8
0
  6
Continuous
 62
     7
370
    15
100
AcDbCircle
 10
0.367125444244802
 20
-0.6136074706453829
 30
0.0
 40
0.4497893258427209
100
AcDbArc
 50
150.7380222522339
 51
179.9999999999941
  0
LINE
  5
CDE
330
1F
100
AcDbEntity
  8
0
  6
Continuous
 62
     7
370
    15
100
AcDbLine
 10
0.0104597388142014
 20
-0.4143762325886128
 30
0.0
 11
0.0162532663362884
 21
-0.4043415248474431
 31
0.0
  0
LINE
  5
CDF
330
1F
100
AcDbEntity
  8
0
  6
Continuous
 62
     7
370
    15
100
AcDbLine
 10
0.7179976268716037
 20
-0.4043415248474431
 30
0.0
 11
0.7238094878448711
 21
-0.4143656374862441
 31
0.0
  0
LINE
  5
CE0
330
1F
100
AcDbEntity
  8
0
  6
Continuous
 62
     7
370
    15
100
AcDbLine
 10
0.3729189835706532
 20
-1.022104661656674
 30
0.0
 11
0.3613319049189232
 21
-1.022104661656674
 31
0.0
  0
CIRCLE
  5
CE1
330
1F
100
AcDbEntity
  8
0
  6
Continuous
 62
     7
370
    15
100
AcDbCircle
 10
0.367125444244802
 20
-0.6136074706453829
 30
0.0
 40
0.3670997191011338
  0
LINE
  5
CE5
330
1F
100
AcDbEntity
  8
0
  6
Continuous
 62
     7
370
    15
100
AcDbLine
 10
0.743700535553298
 20
-0.3961917403083344
 30
0.0
 11
0.5057445031605307
 21
-0.5335757196655194
 31
0.0
  0
LINE
  5
CE6
330
1F
100
AcDbEntity
  8
0
  6
Continuous
 62
     7
370
    15
100
AcDbLine
 10
-0.0094496470637222
 20
-0.3961917403083344
 30
0.0
 11
0.2285063853290729
 21
-0.5335757196655202
 31
0.0
  0
LINE
  5
CE7
330
1F
100
AcDbEntity
  8
0
  6
Continuous
 62
     7
370
    15
100
AcDbLine
 10
0.367125444244802
 20
-1.048438931319484
 30
0.0
 11
0.367125444244802
 21
-0.7736709726050275
 31
0.0
  0
LINE
  5
E0C
330
1F
100
AcDbEntity
  8
0
  6
Continuous
 62
     7
370
    15
100
AcDbLine
 10
0.5060420570862453
 20
0.6602190500333684
 30
0.0
 11
0.8016178377789305
 21
0.0905897982743814
 31
0.0
  0
LINE
  5
E0F
330
1F
100
AcDbEntity
  8
0
  6
Continuous
 62
     7
370
    15
100
AcDbLine
 10
0.2282344825971285
 20
0.6602190500333684
 30
0.0
 11
-0.067965731352038
 21
0.0905897982743814
 31
0.0
  0
LINE
  5
F54
330
1F
100
AcDbEntity
  8
S&C_cotas
 62
   252
370
    -2
100
AcDbLine
 10
0.1846247022500291
 20
0.7121281155490281
 30
0.0
 11
-0.3511977873369376
 21
0.7121281155490281
 31
0.0
  0
LINE
  5
F55
330
1F
100
AcDbEntity
  8
S&C_cotas
 62
   252
370
    -2
100
AcDbLine
 10
0.1858731657516763
 20
0.6565106033681101
 30
0.0
 11
0.1646413874907404
 21
0.6565106033681101
 31
0.0
  0
MTEXT
  5
F56
330
1F
100
AcDbEntity
  8
S&C_cotas
 62
   252
100
AcDbMText
 10
0.14338308878527
 20
0.645725057117572
 30
0.0
 40
0.015
 41
0.0
 71
     5
 72
     1
  1
5 cm / 2"
  7
ARIAL
 11
6.123031769111885E-17
 21
1.0
 31
0.0
 73
     1
 44
1.0
  0
LINE
  5
F66
330
1F
100
AcDbEntity
  8
S&C_cotas
  6
Continuous
370
    -2
100
AcDbLine
 10
0.5272866287818125
 20
0.7459691158848042
 30
0.0
 11
0.5272866287818125
 21
0.8031190184812543
 31
0.0
  0
LINE
  5
F67
330
1F
100
AcDbEntity
  8
S&C_cotas
  6
Continuous
370
    -2
100
AcDbLine
 10
0.203328662206233
 20
0.7459691158848042
 30
0.0
 11
0.203328662206233
 21
0.8031190184812543
 31
0.0
  0
MTEXT
  5
F68
330
1F
100
AcDbEntity
  8
S&C_cotas
  6
Continuous
 62
   252
100
AcDbMText
 10
0.3607857985473117
 20
0.77686732982012
 30
0.0
 40
0.02
 41
0.0
 71
     5
 72
     1
  1
%%c32 cm / 12.6"
  7
ARIAL
 73
     1
 44
1.0
  0
LINE
  5
FFD
330
1F
100
AcDbEntity
  8
S&C_cotas
  6
Continuous
370
    -2
100
AcDbLine
 10
-0.1119835549577661
 20
0.0806011918520035
 30
0.0
 11
-0.2074666800745431
 21
0.0806011918520035
 31
0.0
  0
LINE
  5
FFE
330
1F
100
AcDbEntity
  8
S&C_cotas
  6
Continuous
370
    -2
100
AcDbLine
 10
-0.1119835549577661
 20
0.004008662054231
 30
0.0
 11
-0.3511977873369376
 21
0.004008662054231
 31
0.0
  0
MTEXT
  5
FFF
330
1F
100
AcDbEntity
  8
S&C_cotas
  6
Continuous
100
AcDbMText
 10
-0.25286692904064
 20
0.0705191126464262
 30
0.0
 40
0.015
 41
0.0
 71
     5
 72
     1
  1
8 cm / 3.1"
  7
ARIAL
 11
6.123031769111885E-17
 21
1.0
 31
0.0
 73
     1
 44
1.0
  0
LINE
  5
1639
330
1F
100
AcDbEntity
  8
0
  6
Continuous
 62
     7
370
    15
100
AcDbLine
 10
0.2469361429494729
 20
0.6566190505608678
 30
0.0
 11
0.2469361429494729
 21
0.6602190500333684
 31
0.0
  0
LINE
  5
163A
330
1F
100
AcDbEntity
  8
0
  6
Continuous
 62
     7
370
    15
100
AcDbLine
 10
0.2399361453848327
 20
0.6602190500333684
 30
0.0
 11
0.2399361453848327
 21
0.6566190505608678
 31
0.0
  0
LINE
  5
163B
330
1F
100
AcDbEntity
  8
0
  6
Continuous
 62
     7
370
    15
100
AcDbLine
 10
0.4937533902818675
 20
0.6566190505608678
 30
0.0
 11
0.4937533902818675
 21
0.6602190500333684
 31
0.0
  0
LINE
  5
163C
330
1F
100
AcDbEntity
  8
0
  6
Continuous
 62
     7
370
    15
100
AcDbLine
 10
0.4867533908956568
 20
0.6602190500333684
 30
0.0
 11
0.4867533908956568
 21
0.6566190505608678
 31
0.0
  0
LINE
  5
163D
330
1F
100
AcDbEntity
  8
0
  6
Continuous
 62
     7
370
    15
100
AcDbLine
 10
0.3703447644816998
 20
0.6566190505608678
 30
0.0
 11
0.3703447644816998
 21
0.6602190500333684
 31
0.0
  0
LINE
  5
163E
330
1F
100
AcDbEntity
  8
0
  6
Continuous
 62
     7
370
    15
100
AcDbLine
 10
0.3633447680509579
 20
0.6602190500333684
 30
0.0
 11
0.3633447680509579
 21
0.6566190505608678
 31
0.0
  0
LINE
  5
163F
330
1F
100
AcDbEntity
  8
0
  6
Continuous
 62
     7
370
    15
100
AcDbLine
 10
0.4922533903987659
 20
0.7134690499141574
 30
0.0
 11
0.4915033904572116
 21
0.7142190495714271
 31
0.0
  0
LINE
  5
1640
330
1F
100
AcDbEntity
  8
0
  6
Continuous
 62
     7
370
    15
100
AcDbLine
 10
0.4890033846045311
 20
0.7142190495714271
 30
0.0
 11
0.4882533937342334
 21
0.7134690499141574
 31
0.0
  0
LINE
  5
1641
330
1F
100
AcDbEntity
  8
0
  6
Continuous
 62
     7
370
    15
100
AcDbLine
 10
0.4922533903987659
 20
0.7134190509304184
 30
0.0
 11
0.4922533903987659
 21
0.7134690499141574
 31
0.0
  0
LINE
  5
1642
330
1F
100
AcDbEntity
  8
0
  6
Continuous
 62
     7
370
    15
100
AcDbLine
 10
0.4882533937342334
 20
0.7134690499141574
 30
0.0
 11
0.4882533937342334
 21
0.7134190509304184
 31
0.0
  0
LINE
  5
1643
330
1F
100
AcDbEntity
  8
0
  6
Continuous
 62
     7
370
    15
100
AcDbLine
 10
0.3688447645985921
 20
0.7134690499141574
 30
0.0
 11
0.3680947676125118
 21
0.7142190495714271
 31
0.0
  0
LINE
  5
1644
330
1F
100
AcDbEntity
  8
0
  6
Continuous
 62
     7
370
    15
100
AcDbLine
 10
0.3655947708310879
 20
0.7142190495714271
 30
0.0
 11
0.3648447679340666
 21
0.7134690499141574
 31
0.0
  0
LINE
  5
1645
330
1F
100
AcDbEntity
  8
0
  6
Continuous
 62
     7
370
    15
100
AcDbLine
 10
0.3688447645985921
 20
0.7134190509304184
 30
0.0
 11
0.3688447645985921
 21
0.7134690499141574
 31
0.0
  0
LINE
  5
1646
330
1F
100
AcDbEntity
  8
0
  6
Continuous
 62
     7
370
    15
100
AcDbLine
 10
0.3648447679340666
 20
0.7134690499141574
 30
0.0
 11
0.3648447679340666
 21
0.7134190509304184
 31
0.0
  0
LINE
  5
1647
330
1F
100
AcDbEntity
  8
0
  6
Continuous
 62
     7
370
    15
100
AcDbLine
 10
0.2454361489773124
 20
0.7134690499141574
 30
0.0
 11
0.244686146080291
 21
0.7142190495714271
 31
0.0
  0
LINE
  5
1648
330
1F
100
AcDbEntity
  8
0
  6
Continuous
 62
     7
370
    15
100
AcDbLine
 10
0.2421861540759028
 20
0.7142190495714271
 30
0.0
 11
0.2414361511788744
 21
0.7134690499141574
 31
0.0
  0
LINE
  5
1649
330
1F
100
AcDbEntity
  8
0
  6
Continuous
 62
     7
370
    15
100
AcDbLine
 10
0.2454361489773124
 20
0.7134190509304184
 30
0.0
 11
0.2454361489773124
 21
0.7134690499141574
 31
0.0
  0
LINE
  5
164A
330
1F
100
AcDbEntity
  8
0
  6
Continuous
 62
     7
370
    15
100
AcDbLine
 10
0.2414361511788744
 20
0.7134690499141574
 30
0.0
 11
0.2414361511788744
 21
0.7134190509304184
 31
0.0
  0
LINE
  5
164B
330
1F
100
AcDbEntity
  8
0
  6
Continuous
 62
     7
370
    15
100
AcDbLine
 10
0.2394361517127018
 20
0.6722190501376784
 30
0.0
 11
0.2394361517127018
 21
0.6622190503611975
 31
0.0
  0
LINE
  5
164C
330
1F
100
AcDbEntity
  8
0
  6
Continuous
 62
     7
370
    15
100
AcDbLine
 10
0.247436148443484
 20
0.6622190503611975
 30
0.0
 11
0.247436148443484
 21
0.6722190501376784
 31
0.0
  0
LINE
  5
164D
330
1F
100
AcDbEntity
  8
0
  6
Continuous
 62
     7
370
    15
100
AcDbLine
 10
0.3628447696018003
 20
0.6842190502419883
 30
0.0
 11
0.3628447696018003
 21
0.6742190504654968
 31
0.0
  0
LINE
  5
164E
330
1F
100
AcDbEntity
  8
0
  6
Continuous
 62
     7
370
    15
100
AcDbLine
 10
0.3708447629308583
 20
0.6742190504654968
 30
0.0
 11
0.3708447629308583
 21
0.6842190502419883
 31
0.0
  0
LINE
  5
164F
330
1F
100
AcDbEntity
  8
0
  6
Continuous
 62
     7
370
    15
100
AcDbLine
 10
0.4862533879108714
 20
0.6722190501376784
 30
0.0
 11
0.4862533879108714
 21
0.6647190498396569
 31
0.0
  0
LINE
  5
1650
330
1F
100
AcDbEntity
  8
0
  6
Continuous
 62
     7
370
    15
100
AcDbLine
 10
0.4942533871508704
 20
0.6647190498396569
 30
0.0
 11
0.4942533871508704
 21
0.6722190501376784
 31
0.0
  0
LINE
  5
1651
330
1F
100
AcDbEntity
  8
0
  6
Continuous
 62
     7
370
    15
100
AcDbLine
 10
0.3628447696018003
 20
0.6722190501376784
 30
0.0
 11
0.3628447696018003
 21
0.6622190503611975
 31
0.0
  0
LINE
  5
1652
330
1F
100
AcDbEntity
  8
0
  6
Continuous
 62
     7
370
    15
100
AcDbLine
 10
0.3708447629308583
 20
0.6622190503611975
 30
0.0
 11
0.3708447629308583
 21
0.6722190501376784
 31
0.0
  0
LINE
  5
1653
330
1F
100
AcDbEntity
  8
0
  6
Continuous
 62
     7
370
    15
100
AcDbLine
 10
0.4862533879108714
 20
0.6842190502419883
 30
0.0
 11
0.4862533879108714
 21
0.6767190499439579
 31
0.0
  0
LINE
  5
1654
330
1F
100
AcDbEntity
  8
0
  6
Continuous
 62
     7
370
    15
100
AcDbLine
 10
0.4942533871508704
 20
0.6767190499439579
 30
0.0
 11
0.4942533871508704
 21
0.6842190502419883
 31
0.0
  0
LINE
  5
1655
330
1F
100
AcDbEntity
  8
0
  6
Continuous
 62
     7
370
    15
100
AcDbLine
 10
0.2394361517127018
 20
0.6842190502419883
 30
0.0
 11
0.2394361517127018
 21
0.6742190504654968
 31
0.0
  0
LINE
  5
1656
330
1F
100
AcDbEntity
  8
0
  6
Continuous
 62
     7
370
    15
100
AcDbLine
 10
0.247436148443484
 20
0.6742190504654968
 30
0.0
 11
0.247436148443484
 21
0.6842190502419883
 31
0.0
  0
LINE
  5
1657
330
1F
100
AcDbEntity
  8
0
  6
Continuous
 62
     7
370
    15
100
AcDbLine
 10
0.3708447629308583
 20
0.6862190503369778
 30
0.0
 11
0.3708447629308583
 21
0.6962190503462982
 31
0.0
  0
LINE
  5
1658
330
1F
100
AcDbEntity
  8
0
  6
Continuous
 62
     7
370
    15
100
AcDbLine
 10
0.3628447696018003
 20
0.6962190503462982
 30
0.0
 11
0.3628447696018003
 21
0.6862190503369778
 31
0.0
  0
LINE
  5
1659
330
1F
100
AcDbEntity
  8
0
  6
Continuous
 62
     7
370
    15
100
AcDbLine
 10
0.3708447629308583
 20
0.6982190506741184
 30
0.0
 11
0.3708447629308583
 21
0.7082190504505974
 31
0.0
  0
LINE
  5
165A
330
1F
100
AcDbEntity
  8
0
  6
Continuous
 62
     7
370
    15
100
AcDbLine
 10
0.3628447696018003
 20
0.7082190504505974
 30
0.0
 11
0.3628447696018003
 21
0.6982190506741184
 31
0.0
  0
LINE
  5
165B
330
1F
100
AcDbEntity
  8
0
  6
Continuous
 62
     7
370
    15
100
AcDbLine
 10
0.4942533871508704
 20
0.6982190506741184
 30
0.0
 11
0.4942533871508704
 21
0.7082190504505974
 31
0.0
  0
LINE
  5
165C
330
1F
100
AcDbEntity
  8
0
  6
Continuous
 62
     7
370
    15
100
AcDbLine
 10
0.4862533879108714
 20
0.7082190504505974
 30
0.0
 11
0.4862533879108714
 21
0.6982190506741184
 31
0.0
  0
LINE
  5
165D
330
1F
100
AcDbEntity
  8
0
  6
Continuous
 62
     7
370
    15
100
AcDbLine
 10
0.247436148443484
 20
0.6862190503369778
 30
0.0
 11
0.247436148443484
 21
0.6962190503462982
 31
0.0
  0
LINE
  5
165E
330
1F
100
AcDbEntity
  8
0
  6
Continuous
 62
     7
370
    15
100
AcDbLine
 10
0.2394361517127018
 20
0.6962190503462982
 30
0.0
 11
0.2394361517127018
 21
0.6862190503369778
 31
0.0
  0
LINE
  5
165F
330
1F
100
AcDbEntity
  8
0
  6
Continuous
 62
     7
370
    15
100
AcDbLine
 10
0.4942533871508704
 20
0.6862190503369778
 30
0.0
 11
0.4942533871508704
 21
0.6962190503462982
 31
0.0
  0
LINE
  5
1660
330
1F
100
AcDbEntity
  8
0
  6
Continuous
 62
     7
370
    15
100
AcDbLine
 10
0.4862533879108714
 20
0.6962190503462982
 30
0.0
 11
0.4862533879108714
 21
0.6862190503369778
 31
0.0
  0
LINE
  5
1661
330
1F
100
AcDbEntity
  8
0
  6
Continuous
 62
     7
370
    15
100
AcDbLine
 10
0.247436148443484
 20
0.6982190506741184
 30
0.0
 11
0.247436148443484
 21
0.7082190504505974
 31
0.0
  0
LINE
  5
1662
330
1F
100
AcDbEntity
  8
0
  6
Continuous
 62
     7
370
    15
100
AcDbLine
 10
0.2394361517127018
 20
0.7082190504505974
 30
0.0
 11
0.2394361517127018
 21
0.6982190506741184
 31
0.0
  0
LINE
  5
1665
330
1F
100
AcDbEntity
  8
0
  6
Continuous
 62
     7
370
    15
100
AcDbLine
 10
0.2068447637783221
 20
0.6622190503611975
 30
0.0
 11
0.2068447637783221
 21
0.6602190500333684
 31
0.0
  0
LINE
  5
1666
330
1F
100
AcDbEntity
  8
0
  6
Continuous
 62
     7
370
    15
100
AcDbLine
 10
0.5268447653911895
 20
0.6602190500333684
 30
0.0
 11
0.5268447653911895
 21
0.6622190503611975
 31
0.0
  0
LINE
  5
1667
330
1F
100
AcDbEntity
  8
0
  6
Continuous
 62
     7
370
    15
100
AcDbLine
 10
0.5268447653911895
 20
0.6722190501376784
 30
0.0
 11
0.5268447653911895
 21
0.6742190504654968
 31
0.0
  0
LINE
  5
1668
330
1F
100
AcDbEntity
  8
0
  6
Continuous
 62
     7
370
    15
100
AcDbLine
 10
0.2068447637783221
 20
0.6742190504654968
 30
0.0
 11
0.2068447637783221
 21
0.6722190501376784
 31
0.0
  0
LINE
  5
1669
330
1F
100
AcDbEntity
  8
0
  6
Continuous
 62
     7
370
    15
100
AcDbLine
 10
0.5268447653911895
 20
0.6842190502419883
 30
0.0
 11
0.5268447653911895
 21
0.6862190503369778
 31
0.0
  0
LINE
  5
166A
330
1F
100
AcDbEntity
  8
0
  6
Continuous
 62
     7
370
    15
100
AcDbLine
 10
0.2068447637783221
 20
0.6862190503369778
 30
0.0
 11
0.2068447637783221
 21
0.6842190502419883
 31
0.0
  0
LINE
  5
166B
330
1F
100
AcDbEntity
  8
0
  6
Continuous
 62
     7
370
    15
100
AcDbLine
 10
0.5268447653911895
 20
0.6962190503462982
 30
0.0
 11
0.5268447653911895
 21
0.6982190506741184
 31
0.0
  0
LINE
  5
166C
330
1F
100
AcDbEntity
  8
0
  6
Continuous
 62
     7
370
    15
100
AcDbLine
 10
0.2068447637783221
 20
0.6982190506741184
 30
0.0
 11
0.2068447637783221
 21
0.6962190503462982
 31
0.0
  0
LINE
  5
166D
330
1F
100
AcDbEntity
  8
0
  6
Continuous
 62
     7
370
    15
100
AcDbLine
 10
0.5268447653911895
 20
0.7082190504505974
 30
0.0
 11
0.5268447653911895
 21
0.7102190507784283
 31
0.0
  0
LINE
  5
166E
330
1F
100
AcDbEntity
  8
0
  6
Continuous
 62
     7
370
    15
100
AcDbLine
 10
0.2068447637783221
 20
0.7102190507784283
 30
0.0
 11
0.2068447637783221
 21
0.7082190504505974
 31
0.0
  0
SPLINE
  5
166F
330
1F
100
AcDbEntity
  8
0
  6
Continuous
 62
     7
370
    15
100
AcDbSpline
210
0.0
220
0.0
230
1.0
 70
     8
 71
     3
 72
     9
 73
     5
 74
     0
 42
0.0000000001
 43
0.0000000001
 40
0.0
 40
0.0
 40
0.0
 40
0.0
 40
0.722428784349588
 40
1.0
 40
1.0
 40
1.0
 40
1.0
 10
0.2429086270450046
 20
0.7129190499171376
 30
0.0
 10
0.2432275874260273
 20
0.7130773541840381
 30
0.0
 10
0.2436690986004496
 20
0.7132964820348768
 30
0.0
 10
0.2441444620719796
 20
0.7133924210275879
 30
0.0
 10
0.2442764092886452
 20
0.7134190509304184
 30
0.0
  0
LINE
  5
1670
330
1F
100
AcDbEntity
  8
0
  6
Continuous
 62
     7
370
    15
100
AcDbLine
 10
0.2452746766805513
 20
0.7134190509304184
 30
0.0
 11
0.2442764092886452
 21
0.7134190509304184
 31
0.0
  0
SPLINE
  5
1671
330
1F
100
AcDbEntity
  8
0
  6
Continuous
 62
     7
370
    15
100
AcDbSpline
210
0.0
220
0.0
230
1.0
 70
     8
 71
     3
 72
     9
 73
     5
 74
     0
 42
0.0000000001
 43
0.0000000001
 40
0.0
 40
0.0
 40
0.0
 40
0.0
 40
0.619499034677589
 40
1.0
 40
1.0
 40
1.0
 40
1.0
 10
0.2452746766805513
 20
0.7134190509304184
 30
0.0
 10
0.2455676427179648
 20
0.7133476123429567
 30
0.0
 10
0.2460405506984745
 20
0.7132322956378971
 30
0.0
 10
0.2464765484159986
 20
0.7130053883566767
 30
0.0
 10
0.2466424459683972
 20
0.7129190499171376
 30
0.0
  0
LINE
  5
1672
330
1F
100
AcDbEntity
  8
0
  6
Continuous
 62
     7
370
    15
100
AcDbLine
 10
0.2466424459683972
 20
0.7129190499171376
 30
0.0
 11
0.2466424459683972
 21
0.7107190499290568
 31
0.0
  0
SPLINE
  5
1673
330
1F
100
AcDbEntity
  8
0
  6
Continuous
 62
     7
370
    15
100
AcDbSpline
210
0.0
220
0.0
230
1.0
 70
     8
 71
     3
 72
     9
 73
     5
 74
     0
 42
0.0000000001
 43
0.0000000001
 40
0.0
 40
0.0
 40
0.0
 40
0.0
 40
0.7224274645631182
 40
1.0
 40
1.0
 40
1.0
 40
1.0
 10
0.2466424459683972
 20
0.7107190499290568
 30
0.0
 10
0.2463234906441091
 20
0.7105607449332567
 30
0.0
 10
0.2458819856627276
 20
0.7103416156731381
 30
0.0
 10
0.2454066240176335
 20
0.7102456799111281
 30
0.0
 10
0.2452746766805513
 20
0.7102190507784283
 30
0.0
  0
SPLINE
  5
1674
330
1F
100
AcDbEntity
  8
0
  6
Continuous
 62
     7
370
    15
100
AcDbSpline
210
0.0
220
0.0
230
1.0
 70
     8
 71
     3
 72
     9
 73
     5
 74
     0
 42
0.0000000001
 43
0.0000000001
 40
0.0
 40
0.0
 40
0.0
 40
0.0
 40
0.6195010372640956
 40
1.0
 40
1.0
 40
1.0
 40
1.0
 10
0.2442764092886452
 20
0.7102190507784283
 30
0.0
 10
0.2439834382980951
 20
0.7102904881597081
 30
0.0
 10
0.2435105238509289
 20
0.7104058025449576
 30
0.0
 10
0.2430745243882914
 20
0.7106327113602184
 30
0.0
 10
0.2429086270450046
 20
0.7107190499290568
 30
0.0
  0
LINE
  5
1675
330
1F
100
AcDbEntity
  8
0
  6
Continuous
 62
     7
370
    15
100
AcDbLine
 10
0.2429086270450046
 20
0.7129190499171376
 30
0.0
 11
0.2429086270450046
 21
0.7107190499290568
 31
0.0
  0
SPLINE
  5
1676
330
1F
100
AcDbEntity
  8
0
  6
Continuous
 62
     7
370
    15
100
AcDbSpline
210
0.0
220
0.0
230
1.0
 70
     8
 71
     3
 72
     9
 73
     5
 74
     0
 42
0.0000000001
 43
0.0000000001
 40
0.0
 40
0.0
 40
0.0
 40
0.0
 40
0.722423712857018
 40
1.0
 40
1.0
 40
1.0
 40
1.0
 10
0.2429086270450046
 20
0.7107190499290568
 30
0.0
 10
0.2426347352317743
 20
0.710560744520538
 30
0.0
 10
0.2422556061855449
 20
0.7103416135511378
 30
0.0
 10
0.2418474057795169
 20
0.7102456797318084
 30
0.0
 10
0.2417340990264026
 20
0.7102190507784283
 30
0.0
  0
SPLINE
  5
1677
330
1F
100
AcDbEntity
  8
0
  6
Continuous
 62
     7
370
    15
100
AcDbSpline
210
0.0
220
0.0
230
1.0
 70
     8
 71
     3
 72
     9
 73
     5
 74
     0
 42
0.0000000001
 43
0.0000000001
 40
0.0
 40
0.0
 40
0.0
 40
0.0
 40
0.619502726416432
 40
1.0
 40
1.0
 40
1.0
 40
1.0
 10
0.2417340990264026
 20
0.7134190509304184
 30
0.0
 10
0.2419856771097674
 20
0.7133476130674175
 30
0.0
 10
0.2423917739236087
 20
0.7132322982189969
 30
0.0
 10
0.2427661702598346
 20
0.713005388461297
 30
0.0
 10
0.2429086270450046
 20
0.7129190499171376
 30
0.0
  0
LINE
  5
1678
330
1F
100
AcDbEntity
  8
0
  6
Continuous
 62
     7
370
    15
100
AcDbLine
 10
0.2417340990264026
 20
0.7134190509304184
 30
0.0
 11
0.2442764092886452
 21
0.7134190509304184
 31
0.0
  0
SPLINE
  5
1679
330
1F
100
AcDbEntity
  8
0
  6
Continuous
 62
     7
370
    15
100
AcDbSpline
210
0.0
220
0.0
230
1.0
 70
     8
 71
     3
 72
     9
 73
     5
 74
     0
 42
0.0000000001
 43
0.0000000001
 40
0.0
 40
0.0
 40
0.0
 40
0.0
 40
0.7224259963541083
 40
1.0
 40
1.0
 40
1.0
 40
1.0
 10
0.2397023305877463
 20
0.7129190499171376
 30
0.0
 10
0.2399762265440305
 20
0.713077354490758
 30
0.0
 10
0.2403553601267919
 20
0.7132964836118376
 30
0.0
 10
0.2407635637220139
 20
0.7133924211608378
 30
0.0
 10
0.2408768704282384
 20
0.7134190509304184
 30
0.0
  0
LINE
  5
167A
330
1F
100
AcDbEntity
  8
0
  6
Continuous
 62
     7
370
    15
100
AcDbLine
 10
0.2417340990264026
 20
0.7134190509304184
 30
0.0
 11
0.2408768704282384
 21
0.7134190509304184
 31
0.0
  0
SPLINE
  5
167B
330
1F
100
AcDbEntity
  8
0
  6
Continuous
 62
     7
370
    15
100
AcDbSpline
210
0.0
220
0.0
230
1.0
 70
     8
 71
     3
 72
     9
 73
     5
 74
     0
 42
0.0000000001
 43
0.0000000001
 40
0.0
 40
0.0
 40
0.0
 40
0.0
 40
0.6194972259676698
 40
1.0
 40
1.0
 40
1.0
 40
1.0
 10
0.2408768704282384
 20
0.7102190507784283
 30
0.0
 10
0.2406252926737332
 20
0.7102904889076271
 30
0.0
 10
0.2402191927850484
 20
0.7104058052096278
 30
0.0
 10
0.2398447913662171
 20
0.7106327114682174
 30
0.0
 10
0.2397023305877463
 20
0.7107190499290568
 30
0.0
  0
LINE
  5
167C
330
1F
100
AcDbEntity
  8
0
  6
Continuous
 62
     7
370
    15
100
AcDbLine
 10
0.2397023305877463
 20
0.7129190499171376
 30
0.0
 11
0.2397023305877463
 21
0.7107190499290568
 31
0.0
  0
SPLINE
  5
167D
330
1F
100
AcDbEntity
  8
0
  6
Continuous
 62
     7
370
    15
100
AcDbSpline
210
0.0
220
0.0
230
1.0
 70
     8
 71
     3
 72
     9
 73
     5
 74
     0
 42
0.0000000001
 43
0.0000000001
 40
0.0
 40
0.0
 40
0.0
 40
0.0
 40
0.2756368004654677
 40
1.0
 40
1.0
 40
1.0
 40
1.0
 10
0.2468356883715476
 20
0.7102190507784283
 30
0.0
 10
0.2468171752738341
 20
0.7102454628469979
 30
0.0
 10
0.246750010447926
 20
0.7103412848436375
 30
0.0
 10
0.2466876312000043
 20
0.7105603599697681
 30
0.0
 10
0.2466424459683972
 20
0.7107190499290568
 30
0.0
  0
SPLINE
  5
167E
330
1F
100
AcDbEntity
  8
0
  6
Continuous
 62
     7
370
    15
100
AcDbSpline
210
0.0
220
0.0
230
1.0
 70
     8
 71
     3
 72
     9
 73
     5
 74
     0
 42
0.0000000001
 43
0.0000000001
 40
0.0
 40
0.0
 40
0.0
 40
0.0
 40
0.1268080832296495
 40
1.0
 40
1.0
 40
1.0
 40
1.0
 10
0.2466424459683972
 20
0.7129190499171376
 30
0.0
 10
0.2466501872493451
 20
0.7129483654521078
 30
0.0
 10
0.246711234469274
 20
0.7131795457855374
 30
0.0
 10
0.2467776739521529
 20
0.7133074051590171
 30
0.0
 10
0.2468356883715476
 20
0.7134190509304184
 30
0.0
  0
LINE
  5
167F
330
1F
100
AcDbEntity
  8
0
  6
Continuous
 62
     7
370
    15
100
AcDbLine
 10
0.2452746766805513
 20
0.7134190509304184
 30
0.0
 11
0.2468356883715476
 21
0.7134190509304184
 31
0.0
  0
SPLINE
  5
1680
330
1F
100
AcDbEntity
  8
0
  6
Continuous
 62
     7
370
    15
100
AcDbSpline
210
0.0
220
0.0
230
1.0
 70
     8
 71
     3
 72
     9
 73
     5
 74
     0
 42
0.0000000001
 43
0.0000000001
 40
0.0
 40
0.0
 40
0.0
 40
0.0
 40
0.2756401851644098
 40
1.0
 40
1.0
 40
1.0
 40
1.0
 10
0.2469767271652911
 20
0.7134190509304184
 30
0.0
 10
0.246995235749765
 20
0.7133926390546581
 30
0.0
 10
0.2470623833772553
 20
0.713296818934148
 30
0.0
 10
0.2471247681541578
 20
0.7130777410979772
 30
0.0
 10
0.2471699571796012
 20
0.7129190499171376
 30
0.0
  0
LINE
  5
1681
330
1F
100
AcDbEntity
  8
0
  6
Continuous
 62
     7
370
    15
100
AcDbLine
 10
0.2471699571796012
 20
0.7129190499171376
 30
0.0
 11
0.2471699571796012
 21
0.7107190499290568
 31
0.0
  0
SPLINE
  5
1682
330
1F
100
AcDbEntity
  8
0
  6
Continuous
 62
     7
370
    15
100
AcDbSpline
210
0.0
220
0.0
230
1.0
 70
     8
 71
     3
 72
     9
 73
     5
 74
     0
 42
0.0000000001
 43
0.0000000001
 40
0.0
 40
0.0
 40
0.0
 40
0.0
 40
0.1268071480121822
 40
1.0
 40
1.0
 40
1.0
 40
1.0
 10
0.2471699571796012
 20
0.7107190499290568
 30
0.0
 10
0.2471622160587182
 20
0.7106897343817373
 30
0.0
 10
0.247101169650826
 20
0.7104585522458777
 30
0.0
 10
0.2470347362959234
 20
0.710330694899427
 30
0.0
 10
0.2469767271652911
 20
0.7102190507784283
 30
0.0
  0
LINE
  5
1683
330
1F
100
AcDbEntity
  8
0
  6
Continuous
 62
     7
370
    15
100
AcDbLine
 10
0.2469767271652911
 20
0.7134190509304184
 30
0.0
 11
0.2468356883715476
 21
0.7134190509304184
 31
0.0
  0
SPLINE
  5
1684
330
1F
100
AcDbEntity
  8
0
  6
Continuous
 62
     7
370
    15
100
AcDbSpline
210
0.0
220
0.0
230
1.0
 70
     8
 71
     3
 72
     9
 73
     5
 74
     0
 42
0.0000000001
 43
0.0000000001
 40
0.0
 40
0.0
 40
0.0
 40
0.0
 40
0.1268038087271907
 40
1.0
 40
1.0
 40
1.0
 40
1.0
 10
0.2397023305877463
 20
0.7107190499290568
 30
0.0
 10
0.2397100761165593
 20
0.7106897343580283
 30
0.0
 10
0.2397711588938453
 20
0.7104585459471882
 30
0.0
 10
0.2398375769752125
 20
0.7103306921911969
 30
0.0
 10
0.2398955729909037
 20
0.7102190507784283
 30
0.0
  0
SPLINE
  5
1685
330
1F
100
AcDbEntity
  8
0
  6
Continuous
 62
     7
370
    15
100
AcDbSpline
210
0.0
220
0.0
230
1.0
 70
     8
 71
     3
 72
     9
 73
     5
 74
     0
 42
0.0000000001
 43
0.0000000001
 40
0.0
 40
0.0
 40
0.0
 40
0.0
 40
0.2756366816900334
 40
1.0
 40
1.0
 40
1.0
 40
1.0
 10
0.2398955729909037
 20
0.7134190509304184
 30
0.0
 10
0.2398770598918029
 20
0.7133926388887875
 30
0.0
 10
0.2398098950319326
 20
0.7132968169485772
 30
0.0
 10
0.2397475158088088
 20
0.7130777407090083
 30
0.0
 10
0.2397023305877463
 20
0.7129190499171376
 30
0.0
  0
LINE
  5
1686
330
1F
100
AcDbEntity
  8
0
  6
Continuous
 62
     7
370
    15
100
AcDbLine
 10
0.2398955729909037
 20
0.7134190509304184
 30
0.0
 11
0.2408768704282384
 21
0.7134190509304184
 31
0.0
  0
SPLINE
  5
1687
330
1F
100
AcDbEntity
  8
0
  6
Continuous
 62
     7
370
    15
100
AcDbSpline
210
0.0
220
0.0
230
1.0
 70
     8
 71
     3
 72
     9
 73
     5
 74
     0
 42
0.0000000001
 43
0.0000000001
 40
0.0
 40
0.0
 40
0.0
 40
0.0
 40
0.7224293582484628
 40
1.0
 40
1.0
 40
1.0
 40
1.0
 10
0.3631109532538804
 20
0.7129190499171376
 30
0.0
 10
0.3633848492648543
 20
0.7130773541208975
 30
0.0
 10
0.3637639811590047
 20
0.7132964817102672
 30
0.0
 10
0.3641721824806229
 20
0.7133924210001574
 30
0.0
 10
0.3642854871834235
 20
0.7134190509304184
 30
0.0
  0
LINE
  5
1688
330
1F
100
AcDbEntity
  8
0
  6
Continuous
 62
     7
370
    15
100
AcDbLine
 10
0.3651427216925359
 20
0.7134190509304184
 30
0.0
 11
0.3642854871834235
 21
0.7134190509304184
 31
0.0
  0
SPLINE
  5
1689
330
1F
100
AcDbEntity
  8
0
  6
Continuous
 62
     7
370
    15
100
AcDbSpline
210
0.0
220
0.0
230
1.0
 70
     8
 71
     3
 72
     9
 73
     5
 74
     0
 42
0.0000000001
 43
0.0000000001
 40
0.0
 40
0.0
 40
0.0
 40
0.0
 40
0.619502726416432
 40
1.0
 40
1.0
 40
1.0
 40
1.0
 10
0.3651427216925359
 20
0.7134190509304184
 30
0.0
 10
0.3653942997758935
 20
0.7133476130674175
 30
0.0
 10
0.3658003965897411
 20
0.7132322982189969
 30
0.0
 10
0.3661747929259617
 20
0.713005388461297
 30
0.0
 10
0.3663172497111379
 20
0.7129190499171376
 30
0.0
  0
LINE
  5
168A
330
1F
100
AcDbEntity
  8
0
  6
Continuous
 62
     7
370
    15
100
AcDbLine
 10
0.3663172497111379
 20
0.7129190499171376
 30
0.0
 11
0.3663172497111379
 21
0.7107190499290568
 31
0.0
  0
SPLINE
  5
168B
330
1F
100
AcDbEntity
  8
0
  6
Continuous
 62
     7
370
    15
100
AcDbSpline
210
0.0
220
0.0
230
1.0
 70
     8
 71
     3
 72
     9
 73
     5
 74
     0
 42
0.0000000001
 43
0.0000000001
 40
0.0
 40
0.0
 40
0.0
 40
0.0
 40
0.7224283047642659
 40
1.0
 40
1.0
 40
1.0
 40
1.0
 10
0.3663172497111379
 20
0.7107190499290568
 30
0.0
 10
0.3660433558188746
 20
0.7105607450256877
 30
0.0
 10
0.365664226304624
 20
0.7103416161483669
 30
0.0
 10
0.365256026425094
 20
0.710245679951288
 30
0.0
 10
0.3651427216925359
 20
0.7102190507784283
 30
0.0
  0
SPLINE
  5
168C
330
1F
100
AcDbEntity
  8
0
  6
Continuous
 62
     7
370
    15
100
AcDbSpline
210
0.0
220
0.0
230
1.0
 70
     8
 71
     3
 72
     9
 73
     5
 74
     0
 42
0.0000000001
 43
0.0000000001
 40
0.0
 40
0.0
 40
0.0
 40
0.0
 40
0.6194999162696643
 40
1.0
 40
1.0
 40
1.0
 40
1.0
 10
0.3642854871834235
 20
0.7102190507784283
 30
0.0
 10
0.3640339092464305
 20
0.7102904883796868
 30
0.0
 10
0.3636278108267422
 20
0.7104058033287075
 30
0.0
 10
0.3632534120281082
 20
0.7106327113919868
 30
0.0
 10
0.3631109532538804
 20
0.7107190499290568
 30
0.0
  0
LINE
  5
168D
330
1F
100
AcDbEntity
  8
0
  6
Continuous
 62
     7
370
    15
100
AcDbLine
 10
0.3631109532538804
 20
0.7129190499171376
 30
0.0
 11
0.3631109532538804
 21
0.7107190499290568
 31
0.0
  0
SPLINE
  5
168E
330
1F
100
AcDbEntity
  8
0
  6
Continuous
 62
     7
370
    15
100
AcDbSpline
210
0.0
220
0.0
230
1.0
 70
     8
 71
     3
 72
     9
 73
     5
 74
     0
 42
0.0000000001
 43
0.0000000001
 40
0.0
 40
0.0
 40
0.0
 40
0.0
 40
0.2756380206597476
 40
1.0
 40
1.0
 40
1.0
 40
1.0
 10
0.3676850237760195
 20
0.7102190507784283
 30
0.0
 10
0.367553993620476
 20
0.7102454627892272
 30
0.0
 10
0.3670786232226181
 20
0.7103412841521071
 30
0.0
 10
0.3666370839631122
 20
0.7105603598342871
 30
0.0
 10
0.3663172497111379
 20
0.7107190499290568
 30
0.0
  0
SPLINE
  5
168F
330
1F
100
AcDbEntity
  8
0
  6
Continuous
 62
     7
370
    15
100
AcDbSpline
210
0.0
220
0.0
230
1.0
 70
     8
 71
     3
 72
     9
 73
     5
 74
     0
 42
0.0000000001
 43
0.0000000001
 40
0.0
 40
0.0
 40
0.0
 40
0.0
 40
0.1268099154015514
 40
1.0
 40
1.0
 40
1.0
 40
1.0
 10
0.3663172497111379
 20
0.7129190499171376
 30
0.0
 10
0.3663720572589501
 20
0.7129483654390871
 30
0.0
 10
0.3668042596434521
 20
0.7131795423297984
 30
0.0
 10
0.3672744543875991
 20
0.7133074036731781
 30
0.0
 10
0.3676850237760195
 20
0.7134190509304184
 30
0.0
  0
LINE
  5
1690
330
1F
100
AcDbEntity
  8
0
  6
Continuous
 62
     7
370
    15
100
AcDbLine
 10
0.3651427216925359
 20
0.7134190509304184
 30
0.0
 11
0.3676850237760195
 21
0.7134190509304184
 31
0.0
  0
SPLINE
  5
1691
330
1F
100
AcDbEntity
  8
0
  6
Continuous
 62
     7
370
    15
100
AcDbSpline
210
0.0
220
0.0
230
1.0
 70
     8
 71
     3
 72
     9
 73
     5
 74
     0
 42
0.0000000001
 43
0.0000000001
 40
0.0
 40
0.0
 40
0.0
 40
0.0
 40
0.275637901883673
 40
1.0
 40
1.0
 40
1.0
 40
1.0
 10
0.3686832945696429
 20
0.7134190509304184
 30
0.0
 10
0.3688143247349845
 20
0.7133926389465579
 30
0.0
 10
0.369289695373212
 20
0.7132968176401182
 30
0.0
 10
0.3697312344572262
 20
0.7130777408444768
 30
0.0
 10
0.3700510686345314
 20
0.7129190499171376
 30
0.0
  0
LINE
  5
1692
330
1F
100
AcDbEntity
  8
0
  6
Continuous
 62
     7
370
    15
100
AcDbLine
 10
0.3700510686345314
 20
0.7129190499171376
 30
0.0
 11
0.3700510686345314
 21
0.7107190499290568
 31
0.0
  0
SPLINE
  5
1693
330
1F
100
AcDbEntity
  8
0
  6
Continuous
 62
     7
370
    15
100
AcDbSpline
210
0.0
220
0.0
230
1.0
 70
     8
 71
     3
 72
     9
 73
     5
 74
     0
 42
0.0000000001
 43
0.0000000001
 40
0.0
 40
0.0
 40
0.0
 40
0.0
 40
0.1268062196918126
 40
1.0
 40
1.0
 40
1.0
 40
1.0
 10
0.3700510686345314
 20
0.7107190499290568
 30
0.0
 10
0.3699962625792214
 20
0.710689734375147
 30
0.0
 10
0.3695640593683939
 20
0.7104585504948784
 30
0.0
 10
0.3690938651962771
 20
0.7103306941465484
 30
0.0
 10
0.3686832945696429
 20
0.7102190507784283
 30
0.0
  0
LINE
  5
1694
330
1F
100
AcDbEntity
  8
0
  6
Continuous
 62
     7
370
    15
100
AcDbLine
 10
0.3686832945696429
 20
0.7134190509304184
 30
0.0
 11
0.3676850237760195
 21
0.7134190509304184
 31
0.0
  0
SPLINE
  5
1695
330
1F
100
AcDbEntity
  8
0
  6
Continuous
 62
     7
370
    15
100
AcDbSpline
210
0.0
220
0.0
230
1.0
 70
     8
 71
     3
 72
     9
 73
     5
 74
     0
 42
0.0000000001
 43
0.0000000001
 40
0.0
 40
0.0
 40
0.0
 40
0.0
 40
0.7224267136179763
 40
1.0
 40
1.0
 40
1.0
 40
1.0
 10
0.3700510686345314
 20
0.7129190499171376
 30
0.0
 10
0.3700961313395089
 20
0.7130773544118469
 30
0.0
 10
0.3701585081925959
 20
0.7132964832061373
 30
0.0
 10
0.3702256661418634
 20
0.7133924211265577
 30
0.0
 10
0.3702443073945506
 20
0.7134190509304184
 30
0.0
  0
LINE
  5
1696
330
1F
100
AcDbEntity
  8
0
  6
Continuous
 62
     7
370
    15
100
AcDbLine
 10
0.3686832945696429
 20
0.7134190509304184
 30
0.0
 11
0.3702443073945506
 21
0.7134190509304184
 31
0.0
  0
SPLINE
  5
1697
330
1F
100
AcDbEntity
  8
0
  6
Continuous
 62
     7
370
    15
100
AcDbSpline
210
0.0
220
0.0
230
1.0
 70
     8
 71
     3
 72
     9
 73
     5
 74
     0
 42
0.0000000001
 43
0.0000000001
 40
0.0
 40
0.0
 40
0.0
 40
0.0
 40
0.6195009203898889
 40
1.0
 40
1.0
 40
1.0
 40
1.0
 10
0.3702443073945506
 20
0.7102190507784283
 30
0.0
 10
0.3702029145940745
 20
0.7102904881826373
 30
0.0
 10
0.3701360982276899
 20
0.7104058026266771
 30
0.0
 10
0.3700745048558293
 20
0.7106327113635278
 30
0.0
 10
0.3700510686345314
 20
0.7107190499290568
 30
0.0
  0
SPLINE
  5
1698
330
1F
100
AcDbEntity
  8
0
  6
Continuous
 62
     7
370
    15
100
AcDbSpline
210
0.0
220
0.0
230
1.0
 70
     8
 71
     3
 72
     9
 73
     5
 74
     0
 42
0.0000000001
 43
0.0000000001
 40
0.0
 40
0.0
 40
0.0
 40
0.0
 40
0.7224314825682464
 40
1.0
 40
1.0
 40
1.0
 40
1.0
 10
0.3631109532538804
 20
0.7107190499290568
 30
0.0
 10
0.363156015108331
 20
0.7105607453752978
 30
0.0
 10
0.3632183903723319
 20
0.7103416179457984
 30
0.0
 10
0.3632855515583774
 20
0.7102456801031682
 30
0.0
 10
0.363304193389219
 20
0.7102190507784283
 30
0.0
  0
SPLINE
  5
1699
330
1F
100
AcDbEntity
  8
0
  6
Continuous
 62
     7
370
    15
100
AcDbSpline
210
0.0
220
0.0
230
1.0
 70
     8
 71
     3
 72
     9
 73
     5
 74
     0
 42
0.0000000001
 43
0.0000000001
 40
0.0
 40
0.0
 40
0.0
 40
0.0
 40
0.6195008744425655
 40
1.0
 40
1.0
 40
1.0
 40
1.0
 10
0.363304193389219
 20
0.7134190509304184
 30
0.0
 10
0.3632628035602966
 20
0.713347612703987
 30
0.0
 10
0.3631959919856497
 20
0.7132322969241784
 30
0.0
 10
0.363134391996056
 20
0.7130053884088181
 30
0.0
 10
0.3631109532538804
 20
0.7129190499171376
 30
0.0
  0
LINE
  5
169A
330
1F
100
AcDbEntity
  8
0
  6
Continuous
 62
     7
370
    15
100
AcDbLine
 10
0.363304193389219
 20
0.7134190509304184
 30
0.0
 11
0.3642854871834235
 21
0.7134190509304184
 31
0.0
  0
SPLINE
  5
169B
330
1F
100
AcDbEntity
  8
0
  6
Continuous
 62
     7
370
    15
100
AcDbSpline
210
0.0
220
0.0
230
1.0
 70
     8
 71
     3
 72
     9
 73
     5
 74
     0
 42
0.0000000001
 43
0.0000000001
 40
0.0
 40
0.0
 40
0.0
 40
0.0
 40
0.6194995292804508
 40
1.0
 40
1.0
 40
1.0
 40
1.0
 10
0.3703853450543798
 20
0.7134190509304184
 30
0.0
 10
0.3704267359436816
 20
0.7133476124400169
 30
0.0
 10
0.37049354937507
 20
0.713232295983697
 30
0.0
 10
0.3705551429098154
 20
0.7130053883706975
 30
0.0
 10
0.3705785792787782
 20
0.7129190499171376
 30
0.0
  0
LINE
  5
169C
330
1F
100
AcDbEntity
  8
0
  6
Continuous
 62
     7
370
    15
100
AcDbLine
 10
0.3705785792787782
 20
0.7129190499171376
 30
0.0
 11
0.3705785792787782
 21
0.7107190499290568
 31
0.0
  0
SPLINE
  5
169D
330
1F
100
AcDbEntity
  8
0
  6
Continuous
 62
     7
370
    15
100
AcDbSpline
210
0.0
220
0.0
230
1.0
 70
     8
 71
     3
 72
     9
 73
     5
 74
     0
 42
0.0000000001
 43
0.0000000001
 40
0.0
 40
0.0
 40
0.0
 40
0.0
 40
0.7224298015945488
 40
1.0
 40
1.0
 40
1.0
 40
1.0
 10
0.3705785792787782
 20
0.7107190499290568
 30
0.0
 10
0.370533515424086
 20
0.7105607451903684
 30
0.0
 10
0.3704711372461839
 20
0.710341616995007
 30
0.0
 10
0.370403984621689
 20
0.7102456800228272
 30
0.0
 10
0.3703853450543798
 20
0.7102190507784283
 30
0.0
  0
LINE
  5
169E
330
1F
100
AcDbEntity
  8
0
  6
Continuous
 62
     7
370
    15
100
AcDbLine
 10
0.3703853450543798
 20
0.7134190509304184
 30
0.0
 11
0.3702443073945506
 21
0.7134190509304184
 31
0.0
  0
SPLINE
  5
169F
330
1F
100
AcDbEntity
  8
0
  6
Continuous
 62
     7
370
    15
100
AcDbSpline
210
0.0
220
0.0
230
1.0
 70
     8
 71
     3
 72
     9
 73
     5
 74
     0
 42
0.0000000001
 43
0.0000000001
 40
0.0
 40
0.0
 40
0.0
 40
0.0
 40
0.722427554089314
 40
1.0
 40
1.0
 40
1.0
 40
1.0
 10
0.489725870975683
 20
0.7129190499171376
 30
0.0
 10
0.4900448296562349
 20
0.7130773543193876
 30
0.0
 10
0.4904863392287101
 20
0.7132964827307469
 30
0.0
 10
0.4909616996624425
 20
0.7133924210863871
 30
0.0
 10
0.4910936466207193
 20
0.7134190509304184
 30
0.0
  0
LINE
  5
16A0
330
1F
100
AcDbEntity
  8
0
  6
Continuous
 62
     7
370
    15
100
AcDbLine
 10
0.492091911298559
 20
0.7134190509304184
 30
0.0
 11
0.4910936466207193
 21
0.7134190509304184
 31
0.0
  0
SPLINE
  5
16A1
330
1F
100
AcDbEntity
  8
0
  6
Continuous
 62
     7
370
    15
100
AcDbSpline
210
0.0
220
0.0
230
1.0
 70
     8
 71
     3
 72
     9
 73
     5
 74
     0
 42
0.0000000001
 43
0.0000000001
 40
0.0
 40
0.0
 40
0.0
 40
0.0
 40
0.6195017127994845
 40
1.0
 40
1.0
 40
1.0
 40
1.0
 10
0.492091911298559
 20
0.7134190509304184
 30
0.0
 10
0.49238488095822
 20
0.7133476128685079
 30
0.0
 10
0.4928577927413617
 20
0.7132322975103176
 30
0.0
 10
0.4932937905313043
 20
0.713005388432568
 30
0.0
 10
0.4934596869436024
 20
0.7129190499171376
 30
0.0
  0
LINE
  5
16A2
330
1F
100
AcDbEntity
  8
0
  6
Continuous
 62
     7
370
    15
100
AcDbLine
 10
0.4934596869436024
 20
0.7129190499171376
 30
0.0
 11
0.4934596869436024
 21
0.7107190499290568
 31
0.0
  0
SPLINE
  5
16A3
330
1F
100
AcDbEntity
  8
0
  6
Continuous
 62
     7
370
    15
100
AcDbSpline
210
0.0
220
0.0
230
1.0
 70
     8
 71
     3
 72
     9
 73
     5
 74
     0
 42
0.0000000001
 43
0.0000000001
 40
0.0
 40
0.0
 40
0.0
 40
0.0
 40
0.7224277305831062
 40
1.0
 40
1.0
 40
1.0
 40
1.0
 10
0.4934596869436024
 20
0.7107190499290568
 30
0.0
 10
0.4931407283729511
 20
0.7105607449625275
 30
0.0
 10
0.4926992190604554
 20
0.710341615823608
 30
0.0
 10
0.4922238582715369
 20
0.7102456799238379
 30
0.0
 10
0.492091911298559
 20
0.7102190507784283
 30
0.0
  0
SPLINE
  5
16A4
330
1F
100
AcDbEntity
  8
0
  6
Continuous
 62
     7
370
    15
100
AcDbSpline
210
0.0
220
0.0
230
1.0
 70
     8
 71
     3
 72
     9
 73
     5
 74
     0
 42
0.0000000001
 43
0.0000000001
 40
0.0
 40
0.0
 40
0.0
 40
0.0
 40
0.6195015929729096
 40
1.0
 40
1.0
 40
1.0
 40
1.0
 10
0.4910936466207193
 20
0.7102190507784283
 30
0.0
 10
0.4908006769189871
 20
0.7102904880506469
 30
0.0
 10
0.4903277649764565
 20
0.7104058021564381
 30
0.0
 10
0.4898917673702948
 20
0.7106327113444781
 30
0.0
 10
0.489725870975683
 20
0.7107190499290568
 30
0.0
  0
LINE
  5
16A5
330
1F
100
AcDbEntity
  8
0
  6
Continuous
 62
     7
370
    15
100
AcDbLine
 10
0.489725870975683
 20
0.7129190499171376
 30
0.0
 11
0.489725870975683
 21
0.7107190499290568
 31
0.0
  0
SPLINE
  5
16A6
330
1F
100
AcDbEntity
  8
0
  6
Continuous
 62
     7
370
    15
100
AcDbSpline
210
0.0
220
0.0
230
1.0
 70
     8
 71
     3
 72
     9
 73
     5
 74
     0
 42
0.0000000001
 43
0.0000000001
 40
0.0
 40
0.0
 40
0.0
 40
0.0
 40
0.1268067113377513
 40
1.0
 40
1.0
 40
1.0
 40
1.0
 10
0.489725870975683
 20
0.7107190499290568
 30
0.0
 10
0.4896788085824116
 20
0.7106897343786376
 30
0.0
 10
0.4893076737049714
 20
0.7104585514222184
 30
0.0
 10
0.4889039066682489
 20
0.7103306945452781
 30
0.0
 10
0.4885513400016069
 20
0.7102190507784283
 30
0.0
  0
SPLINE
  5
16A7
330
1F
100
AcDbEntity
  8
0
  6
Continuous
 62
     7
370
    15
100
AcDbSpline
210
0.0
220
0.0
230
1.0
 70
     8
 71
     3
 72
     9
 73
     5
 74
     0
 42
0.0000000001
 43
0.0000000001
 40
0.0
 40
0.0
 40
0.0
 40
0.0
 40
0.2756379305250278
 40
1.0
 40
1.0
 40
1.0
 40
1.0
 10
0.4885513400016069
 20
0.7134190509304184
 30
0.0
 10
0.4886638575419301
 20
0.7133926389479079
 30
0.0
 10
0.4890720652951689
 20
0.713296817656347
 30
0.0
 10
0.4894512232992131
 20
0.7130777408476583
 30
0.0
 10
0.489725870975683
 20
0.7129190499171376
 30
0.0
  0
LINE
  5
16A8
330
1F
100
AcDbEntity
  8
0
  6
Continuous
 62
     7
370
    15
100
AcDbLine
 10
0.4885513400016069
 20
0.7134190509304184
 30
0.0
 11
0.4910936466207193
 21
0.7134190509304184
 31
0.0
  0
SPLINE
  5
16A9
330
1F
100
AcDbEntity
  8
0
  6
Continuous
 62
     7
370
    15
100
AcDbSpline
210
0.0
220
0.0
230
1.0
 70
     8
 71
     3
 72
     9
 73
     5
 74
     0
 42
0.0000000001
 43
0.0000000001
 40
0.0
 40
0.0
 40
0.0
 40
0.0
 40
0.1268063778234636
 40
1.0
 40
1.0
 40
1.0
 40
1.0
 10
0.4865195715629514
 20
0.7129190499171376
 30
0.0
 10
0.4865666339571598
 20
0.7129483654642084
 30
0.0
 10
0.4869377698181129
 20
0.7131795490022583
 30
0.0
 10
0.4873415378351641
 20
0.7133074065420868
 30
0.0
 10
0.4876941054924945
 20
0.7134190509304184
 30
0.0
  0
SPLINE
  5
16AA
330
1F
100
AcDbEntity
  8
0
  6
Continuous
 62
     7
370
    15
100
AcDbSpline
210
0.0
220
0.0
230
1.0
 70
     8
 71
     3
 72
     9
 73
     5
 74
     0
 42
0.0000000001
 43
0.0000000001
 40
0.0
 40
0.0
 40
0.0
 40
0.0
 40
0.275637438518536
 40
1.0
 40
1.0
 40
1.0
 40
1.0
 10
0.4876941054924945
 20
0.7102190507784283
 30
0.0
 10
0.487581587968997
 20
0.7102454628167874
 30
0.0
 10
0.4871733795481749
 20
0.710341284482028
 30
0.0
 10
0.4867942203157586
 20
0.7105603598989181
 30
0.0
 10
0.4865195715629514
 20
0.7107190499290568
 30
0.0
  0
LINE
  5
16AB
330
1F
100
AcDbEntity
  8
0
  6
Continuous
 62
     7
370
    15
100
AcDbLine
 10
0.4865195715629514
 20
0.7129190499171376
 30
0.0
 11
0.4865195715629514
 21
0.7107190499290568
 31
0.0
  0
LINE
  5
16AC
330
1F
100
AcDbEntity
  8
0
  6
Continuous
 62
     7
370
    15
100
AcDbLine
 10
0.4885513400016069
 20
0.7134190509304184
 30
0.0
 11
0.4876941054924945
 21
0.7134190509304184
 31
0.0
  0
SPLINE
  5
16AD
330
1F
100
AcDbEntity
  8
0
  6
Continuous
 62
     7
370
    15
100
AcDbSpline
210
0.0
220
0.0
230
1.0
 70
     8
 71
     3
 72
     9
 73
     5
 74
     0
 42
0.0000000001
 43
0.0000000001
 40
0.0
 40
0.0
 40
0.0
 40
0.0
 40
0.6195015929729096
 40
1.0
 40
1.0
 40
1.0
 40
1.0
 10
0.4936529286590948
 20
0.7102190507784283
 30
0.0
 10
0.4936115363888124
 20
0.7102904880506469
 30
0.0
 10
0.4935447209508016
 20
0.7104058021564381
 30
0.0
 10
0.4934831243515067
 20
0.7106327113444781
 30
0.0
 10
0.4934596869436024
 20
0.7107190499290568
 30
0.0
  0
SPLINE
  5
16AE
330
1F
100
AcDbEntity
  8
0
  6
Continuous
 62
     7
370
    15
100
AcDbSpline
210
0.0
220
0.0
230
1.0
 70
     8
 71
     3
 72
     9
 73
     5
 74
     0
 42
0.0000000001
 43
0.0000000001
 40
0.0
 40
0.0
 40
0.0
 40
0.0
 40
0.722427554089314
 40
1.0
 40
1.0
 40
1.0
 40
1.0
 10
0.4934596869436024
 20
0.7129190499171376
 30
0.0
 10
0.4935047486484828
 20
0.7130773543193876
 30
0.0
 10
0.4935671240446385
 20
0.7132964827307469
 30
0.0
 10
0.4936342862746429
 20
0.7133924210863871
 30
0.0
 10
0.4936529286590948
 20
0.7134190509304184
 30
0.0
  0
LINE
  5
16AF
330
1F
100
AcDbEntity
  8
0
  6
Continuous
 62
     7
370
    15
100
AcDbLine
 10
0.492091911298559
 20
0.7134190509304184
 30
0.0
 11
0.4936529286590948
 21
0.7134190509304184
 31
0.0
  0
SPLINE
  5
16B0
330
1F
100
AcDbEntity
  8
0
  6
Continuous
 62
     7
370
    15
100
AcDbSpline
210
0.0
220
0.0
230
1.0
 70
     8
 71
     3
 72
     9
 73
     5
 74
     0
 42
0.0000000001
 43
0.0000000001
 40
0.0
 40
0.0
 40
0.0
 40
0.0
 40
0.6195017127994845
 40
1.0
 40
1.0
 40
1.0
 40
1.0
 10
0.4937939588278301
 20
0.7134190509304184
 30
0.0
 10
0.4938353510921653
 20
0.7133476128685079
 30
0.0
 10
0.4939021665076598
 20
0.7132322975103176
 30
0.0
 10
0.493963763132918
 20
0.713005388432568
 30
0.0
 10
0.4939872005433233
 20
0.7129190499171376
 30
0.0
  0
LINE
  5
16B1
330
1F
100
AcDbEntity
  8
0
  6
Continuous
 62
     7
370
    15
100
AcDbLine
 10
0.4939872005433233
 20
0.7129190499171376
 30
0.0
 11
0.4939872005433233
 21
0.7107190499290568
 31
0.0
  0
SPLINE
  5
16B2
330
1F
100
AcDbEntity
  8
0
  6
Continuous
 62
     7
370
    15
100
AcDbSpline
210
0.0
220
0.0
230
1.0
 70
     8
 71
     3
 72
     9
 73
     5
 74
     0
 42
0.0000000001
 43
0.0000000001
 40
0.0
 40
0.0
 40
0.0
 40
0.0
 40
0.7224277305831062
 40
1.0
 40
1.0
 40
1.0
 40
1.0
 10
0.4939872005433233
 20
0.7107190499290568
 30
0.0
 10
0.4939421388539674
 20
0.7105607449625275
 30
0.0
 10
0.4938797634945405
 20
0.710341615823608
 30
0.0
 10
0.4938126012143599
 20
0.7102456799238379
 30
0.0
 10
0.4937939588278301
 20
0.7102190507784283
 30
0.0
  0
LINE
  5
16B3
330
1F
100
AcDbEntity
  8
0
  6
Continuous
 62
     7
370
    15
100
AcDbLine
 10
0.4937939588278301
 20
0.7134190509304184
 30
0.0
 11
0.4936529286590948
 21
0.7134190509304184
 31
0.0
  0
SPLINE
  5
16B4
330
1F
100
AcDbEntity
  8
0
  6
Continuous
 62
     7
370
    15
100
AcDbSpline
210
0.0
220
0.0
230
1.0
 70
     8
 71
     3
 72
     9
 73
     5
 74
     0
 42
0.0000000001
 43
0.0000000001
 40
0.0
 40
0.0
 40
0.0
 40
0.0
 40
0.7224274230880852
 40
1.0
 40
1.0
 40
1.0
 40
1.0
 10
0.4865195715629514
 20
0.7107190499290568
 30
0.0
 10
0.486564634620365
 20
0.7105607449286968
 30
0.0
 10
0.4866270119000419
 20
0.7103416156496778
 30
0.0
 10
0.4866941739035381
 20
0.7102456799091474
 30
0.0
 10
0.4867128162339188
 20
0.7102190507784283
 30
0.0
  0
SPLINE
  5
16B5
330
1F
100
AcDbEntity
  8
0
  6
Continuous
 62
     7
370
    15
100
AcDbSpline
210
0.0
220
0.0
230
1.0
 70
     8
 71
     3
 72
     9
 73
     5
 74
     0
 42
0.0000000001
 43
0.0000000001
 40
0.0
 40
0.0
 40
0.0
 40
0.0
 40
0.6195023853765994
 40
1.0
 40
1.0
 40
1.0
 40
1.0
 10
0.4867128162339188
 20
0.7134190509304184
 30
0.0
 10
0.4866714244997684
 20
0.7133476130004983
 30
0.0
 10
0.4866046100126556
 20
0.7132322979805581
 30
0.0
 10
0.4865430101599623
 20
0.7130053884516283
 30
0.0
 10
0.4865195715629514
 20
0.7129190499171376
 30
0.0
  0
LINE
  5
16B6
330
1F
100
AcDbEntity
  8
0
  6
Continuous
 62
     7
370
    15
100
AcDbLine
 10
0.4867128162339188
 20
0.7134190509304184
 30
0.0
 11
0.4876941054924945
 21
0.7134190509304184
 31
0.0
  0
LINE
  5
16BD
330
1F
100
AcDbEntity
  8
0
  6
Continuous
 62
     7
370
    15
100
AcDbLine
 10
0.4890358622054766
 20
0.7134690499141574
 30
0.0
 11
0.4882533937342334
 21
0.7134690499141574
 31
0.0
  0
LINE
  5
16BE
330
1F
100
AcDbEntity
  8
0
  6
Continuous
 62
     7
370
    15
100
AcDbLine
 10
0.4922533903987659
 20
0.7134690499141574
 30
0.0
 11
0.4890358622054766
 21
0.7134690499141574
 31
0.0
  0
LINE
  5
16BF
330
1F
100
AcDbEntity
  8
0
  6
Continuous
 62
     7
370
    15
100
AcDbLine
 10
0.4894924364703138
 20
0.7142190495714271
 30
0.0
 11
0.4915033904572116
 21
0.7142190495714271
 31
0.0
  0
LINE
  5
16C0
330
1F
100
AcDbEntity
  8
0
  6
Continuous
 62
     7
370
    15
100
AcDbLine
 10
0.4890033846045311
 20
0.7142190495714271
 30
0.0
 11
0.4894924364703138
 21
0.7142190495714271
 31
0.0
  0
LINE
  5
16C1
330
1F
100
AcDbEntity
  8
0
  6
Continuous
 62
     7
370
    15
100
AcDbLine
 10
0.3688447645985921
 20
0.7134690499141574
 30
0.0
 11
0.3648447679340666
 21
0.7134690499141574
 31
0.0
  0
LINE
  5
16C2
330
1F
100
AcDbEntity
  8
0
  6
Continuous
 62
     7
370
    15
100
AcDbLine
 10
0.3655947708310879
 20
0.7142190495714271
 30
0.0
 11
0.3680947676125118
 21
0.7142190495714271
 31
0.0
  0
LINE
  5
16C3
330
1F
100
AcDbEntity
  8
0
  6
Continuous
 62
     7
370
    15
100
AcDbLine
 10
0.2454361489773124
 20
0.7134690499141574
 30
0.0
 11
0.2414361511788744
 21
0.7134690499141574
 31
0.0
  0
LINE
  5
16C4
330
1F
100
AcDbEntity
  8
0
  6
Continuous
 62
     7
370
    15
100
AcDbLine
 10
0.2446754507281023
 20
0.7142190495714271
 30
0.0
 11
0.244686146080291
 21
0.7142190495714271
 31
0.0
  0
LINE
  5
16C5
330
1F
100
AcDbEntity
  8
0
  6
Continuous
 62
     7
370
    15
100
AcDbLine
 10
0.2421861540759028
 20
0.7142190495714271
 30
0.0
 11
0.2446754507281023
 21
0.7142190495714271
 31
0.0
  0
LINE
  5
16CC
330
1F
100
AcDbEntity
  8
0
  6
Continuous
 62
     7
370
    15
100
AcDbLine
 10
0.4862600448254429
 20
0.6622190503611975
 30
0.0
 11
0.4862600448254429
 21
0.6647190498396569
 31
0.0
  0
LINE
  5
16CD
330
1F
100
AcDbEntity
  8
0
  6
Continuous
 62
     7
370
    15
100
AcDbLine
 10
0.4862600448254429
 20
0.6647190498396569
 30
0.0
 11
0.4862533879108714
 21
0.6647190498396569
 31
0.0
  0
LINE
  5
16CE
330
1F
100
AcDbEntity
  8
0
  6
Continuous
 62
     7
370
    15
100
AcDbLine
 10
0.4942467272808319
 20
0.6622190503611975
 30
0.0
 11
0.4942467272808319
 21
0.6647190498396569
 31
0.0
  0
LINE
  5
16D4
330
1F
100
AcDbEntity
  8
0
  6
Continuous
 62
     7
370
    15
100
AcDbLine
 10
0.4862600448254429
 20
0.6742190504654968
 30
0.0
 11
0.4862600448254429
 21
0.6767190499439579
 31
0.0
  0
LINE
  5
16D5
330
1F
100
AcDbEntity
  8
0
  6
Continuous
 62
     7
370
    15
100
AcDbLine
 10
0.4862600448254429
 20
0.6767190499439579
 30
0.0
 11
0.4862533879108714
 21
0.6767190499439579
 31
0.0
  0
LINE
  5
16D6
330
1F
100
AcDbEntity
  8
0
  6
Continuous
 62
     7
370
    15
100
AcDbLine
 10
0.4942467272808319
 20
0.6742190504654968
 30
0.0
 11
0.4942467272808319
 21
0.6767190499439579
 31
0.0
  0
LINE
  5
16DE
330
1F
100
AcDbEntity
  8
0
  6
Continuous
 62
     7
370
    15
100
AcDbLine
 10
0.230363892104933
 20
0.6602190500333684
 30
0.0
 11
0.5033256383777885
 21
0.6602190500333684
 31
0.0
  0
LINE
  5
16DF
330
1F
100
AcDbEntity
  8
0
  6
Continuous
 62
     7
370
    15
100
AcDbLine
 10
0.230363892104933
 20
0.6622190503611975
 30
0.0
 11
0.5033256383777885
 21
0.6622190503611975
 31
0.0
  0
LINE
  5
16E0
330
1F
100
AcDbEntity
  8
0
  6
Continuous
 62
     7
370
    15
100
AcDbLine
 10
0.230363892104933
 20
0.6602190500333684
 30
0.0
 11
0.2299229178115855
 21
0.6602190500333684
 31
0.0
  0
LINE
  5
16E1
330
1F
100
AcDbEntity
  8
0
  6
Continuous
 62
     7
370
    15
100
AcDbLine
 10
0.2299229178115855
 20
0.6622190503611975
 30
0.0
 11
0.230363892104933
 21
0.6622190503611975
 31
0.0
  0
LINE
  5
16E2
330
1F
100
AcDbEntity
  8
0
  6
Continuous
 62
     7
370
    15
100
AcDbLine
 10
0.5037666190925879
 20
0.6602190500333684
 30
0.0
 11
0.5033256383777885
 21
0.6602190500333684
 31
0.0
  0
LINE
  5
16E3
330
1F
100
AcDbEntity
  8
0
  6
Continuous
 62
     7
370
    15
100
AcDbLine
 10
0.5033256383777885
 20
0.6622190503611975
 30
0.0
 11
0.5037666190925879
 21
0.6622190503611975
 31
0.0
  0
LINE
  5
16E5
330
1F
100
AcDbEntity
  8
0
  6
Continuous
 62
     7
370
    15
100
AcDbLine
 10
0.2299229126764922
 20
0.6602190500333684
 30
0.0
 11
0.2262874680725216
 21
0.6602190500333684
 31
0.0
  0
LINE
  5
16E6
330
1F
100
AcDbEntity
  8
0
  6
Continuous
 62
     7
370
    15
100
AcDbLine
 10
0.2262874680725216
 20
0.6622190503611975
 30
0.0
 11
0.2299229126764922
 21
0.6622190503611975
 31
0.0
  0
LINE
  5
16E8
330
1F
100
AcDbEntity
  8
0
  6
Continuous
 62
     7
370
    15
100
AcDbLine
 10
0.5074020677957666
 20
0.6602190500333684
 30
0.0
 11
0.5037666232701529
 21
0.6602190500333684
 31
0.0
  0
LINE
  5
16E9
330
1F
100
AcDbEntity
  8
0
  6
Continuous
 62
     7
370
    15
100
AcDbLine
 10
0.5037666232701529
 20
0.6622190503611975
 30
0.0
 11
0.5074020677957666
 21
0.6622190503611975
 31
0.0
  0
LINE
  5
16EA
330
1F
100
AcDbEntity
  8
0
  6
Continuous
 62
     7
370
    15
100
AcDbLine
 10
0.2068447637783221
 20
0.6602190500333684
 30
0.0
 11
0.2262874680725216
 21
0.6602190500333684
 31
0.0
  0
LINE
  5
16EB
330
1F
100
AcDbEntity
  8
0
  6
Continuous
 62
     7
370
    15
100
AcDbLine
 10
0.2068447637783221
 20
0.6622190503611975
 30
0.0
 11
0.2262874680725216
 21
0.6622190503611975
 31
0.0
  0
LINE
  5
16EC
330
1F
100
AcDbEntity
  8
0
  6
Continuous
 62
     7
370
    15
100
AcDbLine
 10
0.5074020677957666
 20
0.6602190500333684
 30
0.0
 11
0.5268447653911895
 21
0.6602190500333684
 31
0.0
  0
LINE
  5
16ED
330
1F
100
AcDbEntity
  8
0
  6
Continuous
 62
     7
370
    15
100
AcDbLine
 10
0.5074020677957666
 20
0.6622190503611975
 30
0.0
 11
0.5268447653911895
 21
0.6622190503611975
 31
0.0
  0
LINE
  5
16EE
330
1F
100
AcDbEntity
  8
0
  6
Continuous
 62
     7
370
    15
100
AcDbLine
 10
0.4468447688090155
 20
0.6742190504654968
 30
0.0
 11
0.5268447653911895
 21
0.6742190504654968
 31
0.0
  0
LINE
  5
16EF
330
1F
100
AcDbEntity
  8
0
  6
Continuous
 62
     7
370
    15
100
AcDbLine
 10
0.2068447637783221
 20
0.6742190504654968
 30
0.0
 11
0.4468447688090155
 21
0.6742190504654968
 31
0.0
  0
LINE
  5
16F0
330
1F
100
AcDbEntity
  8
0
  6
Continuous
 62
     7
370
    15
100
AcDbLine
 10
0.4468447688090155
 20
0.6722190501376784
 30
0.0
 11
0.5268447653911895
 21
0.6722190501376784
 31
0.0
  0
LINE
  5
16F1
330
1F
100
AcDbEntity
  8
0
  6
Continuous
 62
     7
370
    15
100
AcDbLine
 10
0.2068447637783221
 20
0.6722190501376784
 30
0.0
 11
0.4468447688090155
 21
0.6722190501376784
 31
0.0
  0
LINE
  5
16F2
330
1F
100
AcDbEntity
  8
0
  6
Continuous
 62
     7
370
    15
100
AcDbLine
 10
0.2694429414453688
 20
0.6842190502419883
 30
0.0
 11
0.5268447653911895
 21
0.6842190502419883
 31
0.0
  0
LINE
  5
16F3
330
1F
100
AcDbEntity
  8
0
  6
Continuous
 62
     7
370
    15
100
AcDbLine
 10
0.2068447637783221
 20
0.6842190502419883
 30
0.0
 11
0.2694429414453688
 21
0.6842190502419883
 31
0.0
  0
LINE
  5
16F4
330
1F
100
AcDbEntity
  8
0
  6
Continuous
 62
     7
370
    15
100
AcDbLine
 10
0.2694429414453688
 20
0.6862190503369778
 30
0.0
 11
0.5268447653911895
 21
0.6862190503369778
 31
0.0
  0
LINE
  5
16F5
330
1F
100
AcDbEntity
  8
0
  6
Continuous
 62
     7
370
    15
100
AcDbLine
 10
0.2068447637783221
 20
0.6862190503369778
 30
0.0
 11
0.2694429414453688
 21
0.6862190503369778
 31
0.0
  0
LINE
  5
16F6
330
1F
100
AcDbEntity
  8
0
  6
Continuous
 62
     7
370
    15
100
AcDbLine
 10
0.2694429414453688
 20
0.6962190503462982
 30
0.0
 11
0.5268447653911895
 21
0.6962190503462982
 31
0.0
  0
LINE
  5
16F7
330
1F
100
AcDbEntity
  8
0
  6
Continuous
 62
     7
370
    15
100
AcDbLine
 10
0.2068447637783221
 20
0.6962190503462982
 30
0.0
 11
0.2694429414453688
 21
0.6962190503462982
 31
0.0
  0
LINE
  5
16F8
330
1F
100
AcDbEntity
  8
0
  6
Continuous
 62
     7
370
    15
100
AcDbLine
 10
0.2694429414453688
 20
0.6982190506741184
 30
0.0
 11
0.5268447653911895
 21
0.6982190506741184
 31
0.0
  0
LINE
  5
16F9
330
1F
100
AcDbEntity
  8
0
  6
Continuous
 62
     7
370
    15
100
AcDbLine
 10
0.2068447637783221
 20
0.6982190506741184
 30
0.0
 11
0.2694429414453688
 21
0.6982190506741184
 31
0.0
  0
LINE
  5
16FA
330
1F
100
AcDbEntity
  8
0
  6
Continuous
 62
     7
370
    15
100
AcDbLine
 10
0.2694429414453688
 20
0.7082190504505974
 30
0.0
 11
0.5268447653911895
 21
0.7082190504505974
 31
0.0
  0
LINE
  5
16FB
330
1F
100
AcDbEntity
  8
0
  6
Continuous
 62
     7
370
    15
100
AcDbLine
 10
0.2068447637783221
 20
0.7082190504505974
 30
0.0
 11
0.2694429414453688
 21
0.7082190504505974
 31
0.0
  0
LINE
  5
16FC
330
1F
100
AcDbEntity
  8
0
  6
Continuous
 62
     7
370
    15
100
AcDbLine
 10
0.2694429414453688
 20
0.7102190507784283
 30
0.0
 11
0.5268447653911895
 21
0.7102190507784283
 31
0.0
  0
LINE
  5
16FD
330
1F
100
AcDbEntity
  8
0
  6
Continuous
 62
     7
370
    15
100
AcDbLine
 10
0.2068447637783221
 20
0.7102190507784283
 30
0.0
 11
0.2694429414453688
 21
0.7102190507784283
 31
0.0
  0
POINT
  5
16FE
330
1F
100
AcDbEntity
  8
0
  6
Continuous
 62
     7
370
    15
100
AcDbPoint
 10
0.2068447637783221
 20
0.7102190507784283
 30
0.0
  0
POINT
  5
16FF
330
1F
100
AcDbEntity
  8
0
  6
Continuous
 62
     7
370
    15
100
AcDbPoint
 10
0.2068447637783221
 20
0.6602190500333684
 30
0.0
  0
LINE
  5
1702
330
1F
100
AcDbEntity
  8
0
  6
Continuous
 62
     7
370
    15
100
AcDbLine
 10
0.3633447680509579
 20
0.6566190505608678
 30
0.0
 11
0.3703447644816998
 21
0.6566190505608678
 31
0.0
  0
LINE
  5
1703
330
1F
100
AcDbEntity
  8
0
  6
Continuous
 62
     7
370
    15
100
AcDbLine
 10
0.4867533908956568
 20
0.6566190505608678
 30
0.0
 11
0.4937533902818675
 21
0.6566190505608678
 31
0.0
  0
LINE
  5
1704
330
1F
100
AcDbEntity
  8
0
  6
Continuous
 62
     7
370
    15
100
AcDbLine
 10
0.2399361453848327
 20
0.6566190505608678
 30
0.0
 11
0.2469361429494729
 21
0.6566190505608678
 31
0.0
  0
LINE
  5
17AA
330
1F
100
AcDbEntity
  8
S&C_cotas
  6
Continuous
370
    -2
100
AcDbLine
 10
-0.0828973136572415
 20
-0.0319638321801584
 30
0.0
 11
-0.0828973136572415
 21
-0.1219829303915535
 31
0.0
  0
LINE
  5
17AB
330
1F
100
AcDbEntity
  8
S&C_cotas
  6
Continuous
370
    -2
100
AcDbLine
 10
0.8162055038579953
 20
-0.0319638321801584
 30
0.0
 11
0.8166813380281608
 21
-0.1219829303915534
 31
0.0
  0
MTEXT
  5
17AC
330
1F
100
AcDbEntity
  8
S&C_cotas
  6
Continuous
100
AcDbMText
 10
0.3668920121854597
 20
-0.0861240388319646
 30
0.0
 40
0.02
 41
0.0
 71
     5
 72
     1
  1
{Ø85 cm / 33.5"}
  7
ARIAL
 73
     1
 44
1.0
1001
ACAD
1000
ACAD_MTEXT_DEFINED_HEIGHT_BEGIN
1070
    46
1040
0.0340533333333333
1000
ACAD_MTEXT_DEFINED_HEIGHT_END
  0
CIRCLE
  5
1A8A
330
1F
100
AcDbEntity
  8
0
  6
Continuous
 62
     7
370
    15
100
AcDbCircle
 10
0.367125444244802
 20
-0.6136074706453829
 30
0.0
 40
0.1600635019596446
  0
LINE
  5
1A8E
330
1F
100
AcDbEntity
  8
0
  6
Continuous
 62
     7
370
    15
100
AcDbLine
 10
0.3671254442448019
 20
-0.7736709726050275
 30
0.0
 11
0.3671254442448019
 21
-0.7736709726050275
 31
0.0
  0
LINE
  5
1A92
330
1F
100
AcDbEntity
  8
0
  6
Continuous
 62
     7
370
    15
100
AcDbLine
 10
0.367125444244802
 20
0.0905898876403608
 30
0.0
 11
0.367125444244802
 21
0.6566190505608678
 31
0.0
  0
LINE
  5
1AEF
330
1F
100
AcDbEntity
  8
0
  6
Continuous
 62
     7
370
    15
100
AcDbLine
 10
0.3615415112895459
 20
0.0905898876403608
 30
0.0
 11
0.3725415112895132
 21
0.0905898876403608
 31
0.0
  0
LINE
  5
1AF0
330
1F
100
AcDbEntity
  8
0
  6
Continuous
 62
     7
370
    15
100
AcDbLine
 10
0.3615415112895459
 20
0.0815898876404617
 30
0.0
 11
0.3605415112895127
 21
0.0815898876404617
 31
0.0
  0
LINE
  5
1AF1
330
1F
100
AcDbEntity
  8
0
  6
Continuous
 62
     7
370
    15
100
AcDbLine
 10
0.3735415112894886
 20
0.0815898876404617
 30
0.0
 11
0.3725415112895132
 21
0.0815898876404617
 31
0.0
  0
LINE
  5
1AF2
330
1F
100
AcDbEntity
  8
0
  6
Continuous
 62
     7
370
    15
100
AcDbLine
 10
0.3615415112895459
 20
0.0815898876404617
 30
0.0
 11
0.3645415112895034
 21
0.0815898876404617
 31
0.0
  0
LINE
  5
1AF3
330
1F
100
AcDbEntity
  8
0
  6
Continuous
 62
     7
370
    15
100
AcDbLine
 10
0.3615415112895459
 20
0.0805898876403716
 30
0.0
 11
0.3615415112895459
 21
0.0815898876404617
 31
0.0
  0
LINE
  5
1AF4
330
1F
100
AcDbEntity
  8
0
  6
Continuous
 62
     7
370
    15
100
AcDbLine
 10
0.3695415112894989
 20
0.0815898876404617
 30
0.0
 11
0.3645415112895034
 21
0.0815898876404617
 31
0.0
  0
LINE
  5
1AF5
330
1F
100
AcDbEntity
  8
0
  6
Continuous
 62
     7
370
    15
100
AcDbLine
 10
0.3695415112894989
 20
0.0815898876404617
 30
0.0
 11
0.3725415112895132
 21
0.0815898876404617
 31
0.0
  0
LINE
  5
1AF6
330
1F
100
AcDbEntity
  8
0
  6
Continuous
 62
     7
370
    15
100
AcDbLine
 10
0.3725415112895132
 20
0.0815898876404617
 30
0.0
 11
0.3725415112895132
 21
0.0805898876403716
 31
0.0
  0
LINE
  5
1AF7
330
1F
100
AcDbEntity
  8
0
  6
Continuous
 62
     7
370
    15
100
AcDbLine
 10
-0.0783613292932501
 20
0.0815897982744823
 30
0.0
 11
-0.0768613292932288
 21
0.0815897982744823
 31
0.0
  0
LINE
  5
1AF8
330
1F
100
AcDbEntity
  8
0
  6
Continuous
 62
     7
370
    15
100
AcDbLine
 10
-0.0729331260629409
 20
0.0815897982744823
 30
0.0
 11
-0.0768613292932288
 21
0.0815897982744823
 31
0.0
  0
LINE
  5
1AF9
330
1F
100
AcDbEntity
  8
0
  6
Continuous
 62
     7
370
    15
100
AcDbLine
 10
-0.0517465925834757
 20
0.0815897982744823
 30
0.0
 11
-0.0669331260629407
 21
0.0815897982744823
 31
0.0
  0
ARC
  5
1AFA
330
1F
100
AcDbEntity
  8
0
  6
Continuous
 62
     7
370
    15
100
AcDbCircle
 10
-0.0462695597707126
 20
0.0784133556463208
 30
0.0
 40
0.003176524802526
100
AcDbArc
 50
43.55191927268503
 51
89.58576491575866
  0
LINE
  5
1AFB
330
1F
100
AcDbEntity
  8
0
  6
Continuous
 62
     7
370
    15
100
AcDbLine
 10
-0.0517465925834757
 20
0.0815897982744823
 30
0.0
 11
-0.0462465925834636
 21
0.0815897982744823
 31
0.0
  0
LINE
  5
1AFC
330
1F
100
AcDbEntity
  8
0
  6
Continuous
 62
     7
370
    15
100
AcDbLine
 10
0.3725415112895132
 20
0.07926907161516
 30
0.0
 11
0.3725415112895132
 21
0.0767891463609604
 31
0.0
  0
LINE
  5
1AFD
330
1F
100
AcDbEntity
  8
0
  6
Continuous
 62
     7
370
    15
100
AcDbLine
 10
0.3615415112895459
 20
0.07926907161516
 30
0.0
 11
0.3615415112895459
 21
0.0767891463609604
 31
0.0
  0
ARC
  5
1AFE
330
1F
100
AcDbEntity
  8
0
  6
Continuous
 62
     7
370
    15
100
AcDbCircle
 10
0.3642221552927947
 20
0.0768000694981712
 30
0.0
 40
0.0026806662290849
100
AcDbArc
 50
180.2334727241798
 51
215.5635555537071
  0
ARC
  5
1AFF
330
1F
100
AcDbEntity
  8
0
  6
Continuous
 62
     7
370
    15
100
AcDbCircle
 10
0.3699185541305876
 20
0.0767897744873179
 30
0.0
 40
0.0026229572043736
100
AcDbArc
 50
324.0349515214364
 51
359.9862750164055
  0
LINE
  5
1B00
330
1F
100
AcDbEntity
  8
0
  6
Continuous
 62
     7
370
    15
100
AcDbLine
 10
0.3725415112895132
 20
0.0795898876403917
 30
0.0
 11
0.3725415112895132
 21
0.07926907161516
 31
0.0
  0
LINE
  5
1B01
330
1F
100
AcDbEntity
  8
0
  6
Continuous
 62
     7
370
    15
100
AcDbLine
 10
0.3615415112895459
 20
0.0795898876403917
 30
0.0
 11
0.3615415112895459
 21
0.07926907161516
 31
0.0
  0
LINE
  5
1B02
330
1F
100
AcDbEntity
  8
0
  6
Continuous
 62
     7
370
    15
100
AcDbLine
 10
0.3725415112895132
 20
0.0795898876403917
 30
0.0
 11
0.3695415112894989
 21
0.0795898876403917
 31
0.0
  0
LINE
  5
1B03
330
1F
100
AcDbEntity
  8
0
  6
Continuous
 62
     7
370
    15
100
AcDbLine
 10
0.3725415112895132
 20
0.0805898876403716
 30
0.0
 11
0.3725415112895132
 21
0.0795898876403917
 31
0.0
  0
LINE
  5
1B04
330
1F
100
AcDbEntity
  8
0
  6
Continuous
 62
     7
370
    15
100
AcDbLine
 10
0.3615415112895459
 20
0.0795898876403917
 30
0.0
 11
0.3615415112895459
 21
0.0805898876403716
 31
0.0
  0
LINE
  5
1B05
330
1F
100
AcDbEntity
  8
0
  6
Continuous
 62
     7
370
    15
100
AcDbLine
 10
0.3645415112895034
 20
0.0795898876403917
 30
0.0
 11
0.3615415112895459
 21
0.0795898876403917
 31
0.0
  0
LINE
  5
1B06
330
1F
100
AcDbEntity
  8
0
  6
Continuous
 62
     7
370
    15
100
AcDbLine
 10
0.3695415112894989
 20
0.0795898876403917
 30
0.0
 11
0.3645415112895034
 21
0.0795898876403917
 31
0.0
  0
LINE
  5
1B07
330
1F
100
AcDbEntity
  8
0
  6
Continuous
 62
     7
370
    15
100
AcDbLine
 10
0.3720415112894975
 20
0.0485898876405617
 30
0.0
 11
0.3620415112895057
 21
0.0485898876405617
 31
0.0
  0
LINE
  5
1B08
330
1F
100
AcDbEntity
  8
0
  6
Continuous
 62
     7
370
    15
100
AcDbLine
 10
0.8166813380281609
 20
0.0165898876405208
 30
0.0
 11
-0.0828973136572415
 21
0.0165898876405208
 31
0.0
  0
LINE
  5
1B09
330
1F
100
AcDbEntity
  8
0
  6
Continuous
 62
     7
370
    15
100
AcDbLine
 10
0.8166813380281609
 20
0.0465898876404917
 30
0.0
 11
-0.0828973136572415
 21
0.0465898876404917
 31
0.0
  0
LINE
  5
1B0A
330
1F
100
AcDbEntity
  8
0
  6
Continuous
 62
     7
370
    15
100
AcDbLine
 10
0.3615415112895459
 20
0.0905898876403608
 30
0.0
 11
0.3608344045083538
 21
0.0898827808591704
 31
0.0
  0
LINE
  5
1B0B
330
1F
100
AcDbEntity
  8
0
  6
Continuous
 62
     7
370
    15
100
AcDbLine
 10
0.3732486180707053
 20
0.0898827808591704
 30
0.0
 11
0.3725415112895132
 21
0.0905898876403608
 31
0.0
  0
LINE
  5
1B0C
330
1F
100
AcDbEntity
  8
0
  6
Continuous
 62
     7
370
    15
100
AcDbLine
 10
0.3605415112895127
 20
0.0891756740779801
 30
0.0
 11
0.3605415112895127
 21
0.0815898876404617
 31
0.0
  0
LINE
  5
1B0D
330
1F
100
AcDbEntity
  8
0
  6
Continuous
 62
     7
370
    15
100
AcDbLine
 10
0.3735415112894886
 20
0.0815898876404617
 30
0.0
 11
0.3735415112894886
 21
0.0891756740779801
 31
0.0
  0
ARC
  5
1B0E
330
1F
100
AcDbEntity
  8
0
  6
Continuous
 62
     7
370
    15
100
AcDbCircle
 10
0.3725415112895132
 20
0.0891756740779801
 30
0.0
 40
0.0010000000000048
100
AcDbArc
 50
0.0
 51
45.0
  0
ARC
  5
1B0F
330
1F
100
AcDbEntity
  8
0
  6
Continuous
 62
     7
370
    15
100
AcDbCircle
 10
0.3615415112895459
 20
0.0891756740779801
 30
0.0
 40
0.0010000000000079
100
AcDbArc
 50
134.9999999999994
 51
179.9999999999994
  0
LINE
  5
1B10
330
1F
100
AcDbEntity
  8
0
  6
Continuous
 62
     7
370
    15
100
AcDbLine
 10
-0.0783613292932501
 20
0.0815897982744823
 30
0.0
 11
-0.0783613088235655
 21
0.0806020180824022
 31
0.0
  0
LINE
  5
1B11
330
1F
100
AcDbEntity
  8
0
  6
Continuous
 62
     7
370
    15
100
AcDbLine
 10
0.3630415110995397
 20
0.0485898869762913
 30
0.0
 11
0.3630415110995397
 21
0.0465898885109901
 31
0.0
  0
LINE
  5
1B12
330
1F
100
AcDbEntity
  8
0
  6
Continuous
 62
     7
370
    15
100
AcDbLine
 10
0.3710415114795194
 20
0.0465898885109901
 30
0.0
 11
0.3710415114795194
 21
0.0485898869762913
 31
0.0
  0
LINE
  5
1B13
330
1F
100
AcDbEntity
  8
0
  6
Continuous
 62
     7
370
    15
100
AcDbLine
 10
0.3620415114012883
 20
0.0795898864696518
 30
0.0
 11
0.3620415112895057
 21
0.0485898876405617
 31
0.0
  0
LINE
  5
1B14
330
1F
100
AcDbEntity
  8
0
  6
Continuous
 62
     7
370
    15
100
AcDbLine
 10
0.3720415112894975
 20
0.0485898876405617
 30
0.0
 11
0.3720415111777424
 21
0.0671069304178218
 31
0.0
  0
LINE
  5
1B15
330
1F
100
AcDbEntity
  8
0
  6
Continuous
 62
     7
370
    15
100
AcDbLine
 10
0.3720415111777424
 20
0.0671069304178218
 30
0.0
 11
0.3720415111777424
 21
0.0795898864696518
 31
0.0
  0
LINE
  5
1B16
330
1F
100
AcDbEntity
  8
0
  6
Continuous
 62
     7
370
    15
100
AcDbLine
 10
-0.0117709140372519
 20
0.004008662054231
 30
0.0
 11
0.7455549384081327
 21
0.004008662054158
 31
0.0
  0
ARC
  5
1B17
330
1F
100
AcDbEntity
  8
0
  6
Continuous
 62
     7
370
    15
100
AcDbCircle
 10
-0.0117709140372142
 20
0.0070086620542007
 30
0.0
 40
0.0029999999999697
100
AcDbArc
 50
207.5388233488566
 51
269.9999999992806
  0
ARC
  5
1B18
330
1F
100
AcDbEntity
  8
0
  6
Continuous
 62
     7
370
    15
100
AcDbCircle
 10
0.7455549384081327
 20
0.0070086620542007
 30
0.0
 40
0.0030000000000427
100
AcDbArc
 50
270.0
 51
332.4611766504314
  0
LINE
  5
1B19
330
1F
100
AcDbEntity
  8
0
  6
Continuous
 62
     7
370
    15
100
AcDbLine
 10
0.7482150316608335
 20
0.0056216134296409
 30
0.0
 11
0.7500056964914544
 21
0.0090557670871405
 31
0.0
  0
LINE
  5
1B1A
330
1F
100
AcDbEntity
  8
0
  6
Continuous
 62
     7
370
    15
100
AcDbLine
 10
-0.0162216721205368
 20
0.0090557670871405
 30
0.0
 11
-0.0144310072898577
 21
0.0056216134296409
 31
0.0
  0
LINE
  5
1B1B
330
1F
100
AcDbEntity
  8
0
  6
Continuous
 62
     7
370
    15
100
AcDbLine
 10
0.7834172589342357
 20
0.0733489784131507
 30
0.0
 11
0.7851388135267986
 21
0.0766506323528801
 31
0.0
  0
LINE
  5
1B1C
330
1F
100
AcDbEntity
  8
0
  6
Continuous
 62
     7
370
    15
100
AcDbLine
 10
-0.0513547891558517
 20
0.0766506323528801
 30
0.0
 11
-0.0496332345633164
 21
0.0733489784131507
 31
0.0
  0
LINE
  5
1B1D
330
1F
100
AcDbEntity
  8
0
  6
Continuous
 62
     7
370
    15
100
AcDbLine
 10
0.781810660838427
 20
0.0806021059931669
 30
0.0
 11
-0.0481101186936099
 21
0.0806011616545334
 31
0.0
  0
ARC
  5
1B1F
330
1F
100
AcDbEntity
  8
0
  6
Continuous
 62
     7
370
    15
100
AcDbCircle
 10
-0.0480266364674833
 20
0.0769116005768602
 30
0.0
 40
0.0036905054163299
100
AcDbArc
 50
90.0
 51
156.882207656661
  0
ARC
  5
1B20
330
1F
100
AcDbEntity
  8
0
  6
Continuous
 62
     7
370
    15
100
AcDbCircle
 10
0.7818106608384586
 20
0.0769116005768602
 30
0.0
 40
0.0036905054163067
100
AcDbArc
 50
23.11779234382881
 51
90.0000000004904
  0
ARC
  5
1B21
330
1F
100
AcDbEntity
  8
0
  6
Continuous
 62
     7
370
    15
100
AcDbCircle
 10
-0.0495813936540515
 20
0.0775753314359217
 30
0.0
 40
0.0019999999999875
100
AcDbArc
 50
156.8822076575205
 51
207.5388233504647
  0
ARC
  5
1B22
330
1F
100
AcDbEntity
  8
0
  6
Continuous
 62
     7
370
    15
100
AcDbCircle
 10
0.7833654180250268
 20
0.0775753314359217
 30
0.0
 40
0.0019999999999966
100
AcDbArc
 50
332.4611766513943
 51
23.117792344375
  0
LINE
  5
1B23
330
1F
100
AcDbEntity
  8
0
  6
Continuous
 62
     7
370
    15
100
AcDbLine
 10
-0.0828973136572415
 20
0.0465898876404917
 30
0.0
 11
-0.0828973136572415
 21
0.0165898876405208
 31
0.0
  0
LINE
  5
1B24
330
1F
100
AcDbEntity
  8
0
  6
Continuous
 62
     7
370
    15
100
AcDbLine
 10
0.8166813380281609
 20
0.0165898876405208
 30
0.0
 11
0.8166813380281609
 21
0.0465898876404917
 31
0.0
  0
POINT
  5
1B25
330
1F
100
AcDbEntity
  8
0
  6
Continuous
 62
     7
370
    15
100
AcDbPoint
 10
-0.0514207928912356
 20
0.0783605769047408
 30
0.0
  0
POINT
  5
1B26
330
1F
100
AcDbEntity
  8
0
  6
Continuous
 62
     7
370
    15
100
AcDbPoint
 10
-0.0113621425936685
 20
0.0040366415448716
 30
0.0
  0
POINT
  5
1B27
330
1F
100
AcDbEntity
  8
0
  6
Continuous
 62
     7
370
    15
100
AcDbPoint
 10
-0.0828973136572415
 20
0.0465898876404917
 30
0.0
  0
POINT
  5
1B28
330
1F
100
AcDbEntity
  8
0
  6
Continuous
 62
     7
370
    15
100
AcDbPoint
 10
0.8166813380281609
 20
0.0465898876404917
 30
0.0
  0
LINE
  5
1B29
330
1F
100
AcDbEntity
  8
0
  6
Continuous
 62
     7
370
    15
100
AcDbLine
 10
-0.0496332345633164
 20
0.0733489784131507
 30
0.0
 11
-0.0357272091241889
 21
0.0465898876404917
 31
0.0
  0
LINE
  5
1B2A
330
1F
100
AcDbEntity
  8
0
  6
Continuous
 62
     7
370
    15
100
AcDbLine
 10
0.7834172589342357
 20
0.0733489784131507
 30
0.0
 11
0.7695112334951072
 21
0.0465898876404917
 31
0.0
  0
LINE
  5
1B2B
330
1F
100
AcDbEntity
  8
0
  6
Continuous
 62
     7
370
    15
100
AcDbLine
 10
-0.0201369647949727
 20
0.0165898876405208
 30
0.0
 11
-0.0162216721205368
 21
0.0090557670871405
 31
0.0
  0
LINE
  5
1B2C
330
1F
100
AcDbEntity
  8
0
  6
Continuous
 62
     7
370
    15
100
AcDbLine
 10
0.7539209891658903
 20
0.0165898876405208
 30
0.0
 11
0.7500056964914544
 21
0.0090557670871405
 31
0.0
  0
LINE
  5
1B2D
330
1F
100
AcDbEntity
  8
0
  6
Continuous
 62
     7
370
    15
100
AcDbLine
 10
0.3605415112895127
 20
0.0891756740779801
 30
0.0
 11
0.3735415112894886
 21
0.0891756740779801
 31
0.0
  0
LINE
  5
1B2E
330
1F
100
AcDbEntity
  8
0
  6
Continuous
 62
     7
370
    15
100
AcDbLine
 10
-0.0733158851398747
 20
0.0905897982743814
 30
0.0
 11
-0.0623158851399075
 21
0.0905897982743814
 31
0.0
  0
LINE
  5
1B2F
330
1F
100
AcDbEntity
  8
0
  6
Continuous
 62
     7
370
    15
100
AcDbLine
 10
-0.0733158851398747
 20
0.0815897982744823
 30
0.0
 11
-0.0743158851399079
 21
0.0815897982744823
 31
0.0
  0
LINE
  5
1B30
330
1F
100
AcDbEntity
  8
0
  6
Continuous
 62
     7
370
    15
100
AcDbLine
 10
-0.061315885139932
 20
0.0815897982744823
 30
0.0
 11
-0.0623158851399075
 21
0.0815897982744823
 31
0.0
  0
LINE
  5
1B31
330
1F
100
AcDbEntity
  8
0
  6
Continuous
 62
     7
370
    15
100
AcDbLine
 10
-0.0733158851398747
 20
0.0815897982744823
 30
0.0
 11
-0.0703158851399173
 21
0.0815897982744823
 31
0.0
  0
LINE
  5
1B32
330
1F
100
AcDbEntity
  8
0
  6
Continuous
 62
     7
370
    15
100
AcDbLine
 10
-0.0733158851398747
 20
0.0805897982743922
 30
0.0
 11
-0.0733158851398747
 21
0.0815897982744823
 31
0.0
  0
LINE
  5
1B33
330
1F
100
AcDbEntity
  8
0
  6
Continuous
 62
     7
370
    15
100
AcDbLine
 10
-0.0653158851399218
 20
0.0815897982744823
 30
0.0
 11
-0.0703158851399173
 21
0.0815897982744823
 31
0.0
  0
LINE
  5
1B34
330
1F
100
AcDbEntity
  8
0
  6
Continuous
 62
     7
370
    15
100
AcDbLine
 10
-0.0653158851399218
 20
0.0815897982744823
 30
0.0
 11
-0.0623158851399075
 21
0.0815897982744823
 31
0.0
  0
LINE
  5
1B35
330
1F
100
AcDbEntity
  8
0
  6
Continuous
 62
     7
370
    15
100
AcDbLine
 10
-0.0623158851399075
 20
0.0815897982744823
 30
0.0
 11
-0.0623158851399075
 21
0.0805897982743922
 31
0.0
  0
LINE
  5
1B36
330
1F
100
AcDbEntity
  8
0
  6
Continuous
 62
     7
370
    15
100
AcDbLine
 10
-0.0623158851399075
 20
0.0792689822491806
 30
0.0
 11
-0.0623158851399075
 21
0.076789056994981
 31
0.0
  0
LINE
  5
1B37
330
1F
100
AcDbEntity
  8
0
  6
Continuous
 62
     7
370
    15
100
AcDbLine
 10
-0.0733158851398747
 20
0.0792689822491806
 30
0.0
 11
-0.0733158851398747
 21
0.076789056994981
 31
0.0
  0
ARC
  5
1B38
330
1F
100
AcDbEntity
  8
0
  6
Continuous
 62
     7
370
    15
100
AcDbCircle
 10
-0.070635241136626
 20
0.0767999801321918
 30
0.0
 40
0.0026806662290849
100
AcDbArc
 50
180.2334727241798
 51
215.5635555537071
  0
ARC
  5
1B39
330
1F
100
AcDbEntity
  8
0
  6
Continuous
 62
     7
370
    15
100
AcDbCircle
 10
-0.0649388422988333
 20
0.0767896851213385
 30
0.0
 40
0.0026229572043738
100
AcDbArc
 50
324.0349515214392
 51
359.9862750164083
  0
LINE
  5
1B3A
330
1F
100
AcDbEntity
  8
0
  6
Continuous
 62
     7
370
    15
100
AcDbLine
 10
-0.0623158851399075
 20
0.0795897982744123
 30
0.0
 11
-0.0623158851399075
 21
0.0792689822491806
 31
0.0
  0
LINE
  5
1B3B
330
1F
100
AcDbEntity
  8
0
  6
Continuous
 62
     7
370
    15
100
AcDbLine
 10
-0.0733158851398747
 20
0.0795897982744123
 30
0.0
 11
-0.0733158851398747
 21
0.0792689822491806
 31
0.0
  0
LINE
  5
1B3C
330
1F
100
AcDbEntity
  8
0
  6
Continuous
 62
     7
370
    15
100
AcDbLine
 10
-0.0623158851399075
 20
0.0795897982744123
 30
0.0
 11
-0.0653158851399218
 21
0.0795897982744123
 31
0.0
  0
LINE
  5
1B3D
330
1F
100
AcDbEntity
  8
0
  6
Continuous
 62
     7
370
    15
100
AcDbLine
 10
-0.0623158851399075
 20
0.0805897982743922
 30
0.0
 11
-0.0623158851399075
 21
0.0795897982744123
 31
0.0
  0
LINE
  5
1B3E
330
1F
100
AcDbEntity
  8
0
  6
Continuous
 62
     7
370
    15
100
AcDbLine
 10
-0.0733158851398747
 20
0.0795897982744123
 30
0.0
 11
-0.0733158851398747
 21
0.0805897982743922
 31
0.0
  0
LINE
  5
1B3F
330
1F
100
AcDbEntity
  8
0
  6
Continuous
 62
     7
370
    15
100
AcDbLine
 10
-0.0703158851399173
 20
0.0795897982744123
 30
0.0
 11
-0.0733158851398747
 21
0.0795897982744123
 31
0.0
  0
LINE
  5
1B40
330
1F
100
AcDbEntity
  8
0
  6
Continuous
 62
     7
370
    15
100
AcDbLine
 10
-0.0653158851399218
 20
0.0795897982744123
 30
0.0
 11
-0.0703158851399173
 21
0.0795897982744123
 31
0.0
  0
LINE
  5
1B41
330
1F
100
AcDbEntity
  8
0
  6
Continuous
 62
     7
370
    15
100
AcDbLine
 10
-0.0628158851399232
 20
0.0485897982745823
 30
0.0
 11
-0.072815885139915
 21
0.0485897982745823
 31
0.0
  0
LINE
  5
1B42
330
1F
100
AcDbEntity
  8
0
  6
Continuous
 62
     7
370
    15
100
AcDbLine
 10
-0.0733158851398747
 20
0.0905897982743814
 30
0.0
 11
-0.0740229919210669
 21
0.089882691493191
 31
0.0
  0
LINE
  5
1B43
330
1F
100
AcDbEntity
  8
0
  6
Continuous
 62
     7
370
    15
100
AcDbLine
 10
-0.0616087783587154
 20
0.089882691493191
 30
0.0
 11
-0.0623158851399075
 21
0.0905897982743814
 31
0.0
  0
LINE
  5
1B44
330
1F
100
AcDbEntity
  8
0
  6
Continuous
 62
     7
370
    15
100
AcDbLine
 10
-0.0743158851399079
 20
0.0891755847120007
 30
0.0
 11
-0.0743158851399079
 21
0.0815897982744823
 31
0.0
  0
LINE
  5
1B45
330
1F
100
AcDbEntity
  8
0
  6
Continuous
 62
     7
370
    15
100
AcDbLine
 10
-0.061315885139932
 20
0.0815897982744823
 30
0.0
 11
-0.061315885139932
 21
0.0891755847120007
 31
0.0
  0
ARC
  5
1B46
330
1F
100
AcDbEntity
  8
0
  6
Continuous
 62
     7
370
    15
100
AcDbCircle
 10
-0.0623158851399075
 20
0.0891755847120007
 30
0.0
 40
0.0010000000000048
100
AcDbArc
 50
0.0
 51
45.0
  0
ARC
  5
1B47
330
1F
100
AcDbEntity
  8
0
  6
Continuous
 62
     7
370
    15
100
AcDbCircle
 10
-0.0733158851398747
 20
0.0891755847120007
 30
0.0
 40
0.0010000000000079
100
AcDbArc
 50
134.9999999999994
 51
179.9999999999994
  0
LINE
  5
1B48
330
1F
100
AcDbEntity
  8
0
  6
Continuous
 62
     7
370
    15
100
AcDbLine
 10
-0.0718158853298809
 20
0.0485897976103119
 30
0.0
 11
-0.0718158853298809
 21
0.0465897991450107
 31
0.0
  0
LINE
  5
1B49
330
1F
100
AcDbEntity
  8
0
  6
Continuous
 62
     7
370
    15
100
AcDbLine
 10
-0.0638158849499013
 20
0.0465897991450107
 30
0.0
 11
-0.0638158849499013
 21
0.0485897976103119
 31
0.0
  0
LINE
  5
1B4A
330
1F
100
AcDbEntity
  8
0
  6
Continuous
 62
     7
370
    15
100
AcDbLine
 10
-0.0728158850281324
 20
0.0795897971036724
 30
0.0
 11
-0.072815885139915
 21
0.0485897982745823
 31
0.0
  0
LINE
  5
1B4B
330
1F
100
AcDbEntity
  8
0
  6
Continuous
 62
     7
370
    15
100
AcDbLine
 10
-0.0628158851399232
 20
0.0485897982745823
 30
0.0
 11
-0.0628158852516782
 21
0.0671068410518424
 31
0.0
  0
LINE
  5
1B4C
330
1F
100
AcDbEntity
  8
0
  6
Continuous
 62
     7
370
    15
100
AcDbLine
 10
-0.0628158852516782
 20
0.0671068410518424
 30
0.0
 11
-0.0628158852516782
 21
0.0795897971036724
 31
0.0
  0
LINE
  5
1B4D
330
1F
100
AcDbEntity
  8
0
  6
Continuous
 62
     7
370
    15
100
AcDbLine
 10
-0.0743158851399079
 20
0.0891755847120007
 30
0.0
 11
-0.061315885139932
 21
0.0891755847120007
 31
0.0
  0
LINE
  5
1B4E
330
1F
100
AcDbEntity
  8
0
  6
Continuous
 62
     7
370
    15
100
AcDbLine
 10
-0.0484280295162218
 20
0.0805802125553045
 30
0.0
 11
-0.0623158851399075
 21
0.0805897982743922
 31
0.0
  0
LINE
  5
1B4F
330
1F
100
AcDbEntity
  8
0
  6
Continuous
 62
     7
370
    15
100
AcDbLine
 10
-0.0783613088235655
 20
0.0806020180824022
 30
0.0
 11
-0.0733158851398747
 21
0.0805897982743922
 31
0.0
  0
LINE
  5
1B50
330
1F
100
AcDbEntity
  8
0
  6
Continuous
 62
     7
370
    15
100
AcDbLine
 10
0.812145353664197
 20
0.0815897982744823
 30
0.0
 11
0.8106453536641757
 21
0.0815897982744823
 31
0.0
  0
LINE
  5
1B51
330
1F
100
AcDbEntity
  8
0
  6
Continuous
 62
     7
370
    15
100
AcDbLine
 10
0.8067171504338878
 20
0.0815897982744823
 30
0.0
 11
0.8106453536641757
 21
0.0815897982744823
 31
0.0
  0
LINE
  5
1B52
330
1F
100
AcDbEntity
  8
0
  6
Continuous
 62
     7
370
    15
100
AcDbLine
 10
0.7855306169544226
 20
0.0815897982744823
 30
0.0
 11
0.8007171504338876
 21
0.0815897982744823
 31
0.0
  0
ARC
  5
1B53
330
1F
100
AcDbEntity
  8
0
  6
Continuous
 62
     7
370
    15
100
AcDbCircle
 10
0.7800535841416595
 20
0.0784133556463208
 30
0.0
 40
0.003176524802526
100
AcDbArc
 50
90.41423508424286
 51
136.4480807273165
  0
LINE
  5
1B54
330
1F
100
AcDbEntity
  8
0
  6
Continuous
 62
     7
370
    15
100
AcDbLine
 10
0.7855306169544226
 20
0.0815897982744823
 30
0.0
 11
0.7800306169544106
 21
0.0815897982744823
 31
0.0
  0
LINE
  5
1B55
330
1F
100
AcDbEntity
  8
0
  6
Continuous
 62
     7
370
    15
100
AcDbLine
 10
0.812145353664197
 20
0.0815897982744823
 30
0.0
 11
0.8121453331945124
 21
0.0806020180824022
 31
0.0
  0
ARC
  5
1B56
330
1F
100
AcDbEntity
  8
0
  6
Continuous
 62
     7
370
    15
100
AcDbCircle
 10
0.7833654180249984
 20
0.0775753314359217
 30
0.0
 40
0.0019999999999874
100
AcDbArc
 50
332.4611766495337
 51
23.11779234247791
  0
POINT
  5
1B57
330
1F
100
AcDbEntity
  8
0
  6
Continuous
 62
     7
370
    15
100
AcDbPoint
 10
0.7852048172621825
 20
0.0783605769047408
 30
0.0
  0
LINE
  5
1B58
330
1F
100
AcDbEntity
  8
0
  6
Continuous
 62
     7
370
    15
100
AcDbLine
 10
0.8070999095108217
 20
0.0905897982743814
 30
0.0
 11
0.7960999095108544
 21
0.0905897982743814
 31
0.0
  0
LINE
  5
1B59
330
1F
100
AcDbEntity
  8
0
  6
Continuous
 62
     7
370
    15
100
AcDbLine
 10
0.8070999095108217
 20
0.0815897982744823
 30
0.0
 11
0.8080999095108549
 21
0.0815897982744823
 31
0.0
  0
LINE
  5
1B5A
330
1F
100
AcDbEntity
  8
0
  6
Continuous
 62
     7
370
    15
100
AcDbLine
 10
0.7950999095108789
 20
0.0815897982744823
 30
0.0
 11
0.7960999095108544
 21
0.0815897982744823
 31
0.0
  0
LINE
  5
1B5B
330
1F
100
AcDbEntity
  8
0
  6
Continuous
 62
     7
370
    15
100
AcDbLine
 10
0.8070999095108217
 20
0.0815897982744823
 30
0.0
 11
0.8040999095108642
 21
0.0815897982744823
 31
0.0
  0
LINE
  5
1B5C
330
1F
100
AcDbEntity
  8
0
  6
Continuous
 62
     7
370
    15
100
AcDbLine
 10
0.8070999095108217
 20
0.0805897982743922
 30
0.0
 11
0.8070999095108217
 21
0.0815897982744823
 31
0.0
  0
LINE
  5
1B5D
330
1F
100
AcDbEntity
  8
0
  6
Continuous
 62
     7
370
    15
100
AcDbLine
 10
0.7990999095108687
 20
0.0815897982744823
 30
0.0
 11
0.8040999095108642
 21
0.0815897982744823
 31
0.0
  0
LINE
  5
1B5E
330
1F
100
AcDbEntity
  8
0
  6
Continuous
 62
     7
370
    15
100
AcDbLine
 10
0.7990999095108687
 20
0.0815897982744823
 30
0.0
 11
0.7960999095108544
 21
0.0815897982744823
 31
0.0
  0
LINE
  5
1B5F
330
1F
100
AcDbEntity
  8
0
  6
Continuous
 62
     7
370
    15
100
AcDbLine
 10
0.7960999095108544
 20
0.0815897982744823
 30
0.0
 11
0.7960999095108544
 21
0.0805897982743922
 31
0.0
  0
LINE
  5
1B60
330
1F
100
AcDbEntity
  8
0
  6
Continuous
 62
     7
370
    15
100
AcDbLine
 10
0.7960999095108544
 20
0.0792689822491806
 30
0.0
 11
0.7960999095108544
 21
0.076789056994981
 31
0.0
  0
LINE
  5
1B61
330
1F
100
AcDbEntity
  8
0
  6
Continuous
 62
     7
370
    15
100
AcDbLine
 10
0.8070999095108217
 20
0.0792689822491806
 30
0.0
 11
0.8070999095108217
 21
0.076789056994981
 31
0.0
  0
ARC
  5
1B62
330
1F
100
AcDbEntity
  8
0
  6
Continuous
 62
     7
370
    15
100
AcDbCircle
 10
0.8044192655075729
 20
0.0767999801321918
 30
0.0
 40
0.002680666229085
100
AcDbArc
 50
324.4364444462952
 51
359.7665272758226
  0
ARC
  5
1B63
330
1F
100
AcDbEntity
  8
0
  6
Continuous
 62
     7
370
    15
100
AcDbCircle
 10
0.79872286666978
 20
0.0767896851213385
 30
0.0
 40
0.0026229572043736
100
AcDbArc
 50
180.0137249835916
 51
215.9650484785607
  0
LINE
  5
1B64
330
1F
100
AcDbEntity
  8
0
  6
Continuous
 62
     7
370
    15
100
AcDbLine
 10
0.7960999095108544
 20
0.0795897982744123
 30
0.0
 11
0.7960999095108544
 21
0.0792689822491806
 31
0.0
  0
LINE
  5
1B65
330
1F
100
AcDbEntity
  8
0
  6
Continuous
 62
     7
370
    15
100
AcDbLine
 10
0.8070999095108217
 20
0.0795897982744123
 30
0.0
 11
0.8070999095108217
 21
0.0792689822491806
 31
0.0
  0
LINE
  5
1B66
330
1F
100
AcDbEntity
  8
0
  6
Continuous
 62
     7
370
    15
100
AcDbLine
 10
0.7960999095108544
 20
0.0795897982744123
 30
0.0
 11
0.7990999095108687
 21
0.0795897982744123
 31
0.0
  0
LINE
  5
1B67
330
1F
100
AcDbEntity
  8
0
  6
Continuous
 62
     7
370
    15
100
AcDbLine
 10
0.7960999095108544
 20
0.0805897982743922
 30
0.0
 11
0.7960999095108544
 21
0.0795897982744123
 31
0.0
  0
LINE
  5
1B68
330
1F
100
AcDbEntity
  8
0
  6
Continuous
 62
     7
370
    15
100
AcDbLine
 10
0.8070999095108217
 20
0.0795897982744123
 30
0.0
 11
0.8070999095108217
 21
0.0805897982743922
 31
0.0
  0
LINE
  5
1B69
330
1F
100
AcDbEntity
  8
0
  6
Continuous
 62
     7
370
    15
100
AcDbLine
 10
0.8040999095108642
 20
0.0795897982744123
 30
0.0
 11
0.8070999095108217
 21
0.0795897982744123
 31
0.0
  0
LINE
  5
1B6A
330
1F
100
AcDbEntity
  8
0
  6
Continuous
 62
     7
370
    15
100
AcDbLine
 10
0.7990999095108687
 20
0.0795897982744123
 30
0.0
 11
0.8040999095108642
 21
0.0795897982744123
 31
0.0
  0
LINE
  5
1B6B
330
1F
100
AcDbEntity
  8
0
  6
Continuous
 62
     7
370
    15
100
AcDbLine
 10
0.7965999095108701
 20
0.0485897982745823
 30
0.0
 11
0.8065999095108619
 21
0.0485897982745823
 31
0.0
  0
LINE
  5
1B6C
330
1F
100
AcDbEntity
  8
0
  6
Continuous
 62
     7
370
    15
100
AcDbLine
 10
0.8070999095108217
 20
0.0905897982743814
 30
0.0
 11
0.8078070162920138
 21
0.089882691493191
 31
0.0
  0
LINE
  5
1B6D
330
1F
100
AcDbEntity
  8
0
  6
Continuous
 62
     7
370
    15
100
AcDbLine
 10
0.7953928027296623
 20
0.089882691493191
 30
0.0
 11
0.7960999095108544
 21
0.0905897982743814
 31
0.0
  0
LINE
  5
1B6E
330
1F
100
AcDbEntity
  8
0
  6
Continuous
 62
     7
370
    15
100
AcDbLine
 10
0.8080999095108549
 20
0.0891755847120007
 30
0.0
 11
0.8080999095108549
 21
0.0815897982744823
 31
0.0
  0
LINE
  5
1B6F
330
1F
100
AcDbEntity
  8
0
  6
Continuous
 62
     7
370
    15
100
AcDbLine
 10
0.7950999095108789
 20
0.0815897982744823
 30
0.0
 11
0.7950999095108789
 21
0.0891755847120007
 31
0.0
  0
ARC
  5
1B70
330
1F
100
AcDbEntity
  8
0
  6
Continuous
 62
     7
370
    15
100
AcDbCircle
 10
0.7960999095108544
 20
0.0891755847120007
 30
0.0
 40
0.0010000000000048
100
AcDbArc
 50
134.9999999999989
 51
179.9999999999989
  0
ARC
  5
1B71
330
1F
100
AcDbEntity
  8
0
  6
Continuous
 62
     7
370
    15
100
AcDbCircle
 10
0.8070999095108217
 20
0.0891755847120007
 30
0.0
 40
0.0010000000000079
100
AcDbArc
 50
0.0000000000007951
 51
45.0000000000008
  0
LINE
  5
1B72
330
1F
100
AcDbEntity
  8
0
  6
Continuous
 62
     7
370
    15
100
AcDbLine
 10
0.8055999097008278
 20
0.0485897976103119
 30
0.0
 11
0.8055999097008278
 21
0.0465897991450107
 31
0.0
  0
LINE
  5
1B73
330
1F
100
AcDbEntity
  8
0
  6
Continuous
 62
     7
370
    15
100
AcDbLine
 10
0.7975999093208482
 20
0.0465897991450107
 30
0.0
 11
0.7975999093208482
 21
0.0485897976103119
 31
0.0
  0
LINE
  5
1B74
330
1F
100
AcDbEntity
  8
0
  6
Continuous
 62
     7
370
    15
100
AcDbLine
 10
0.8065999093990793
 20
0.0795897971036724
 30
0.0
 11
0.8065999095108619
 21
0.0485897982745823
 31
0.0
  0
LINE
  5
1B75
330
1F
100
AcDbEntity
  8
0
  6
Continuous
 62
     7
370
    15
100
AcDbLine
 10
0.7965999095108701
 20
0.0485897982745823
 30
0.0
 11
0.7965999096226252
 21
0.0671068410518424
 31
0.0
  0
LINE
  5
1B76
330
1F
100
AcDbEntity
  8
0
  6
Continuous
 62
     7
370
    15
100
AcDbLine
 10
0.7965999096226252
 20
0.0671068410518424
 30
0.0
 11
0.7965999096226252
 21
0.0795897971036724
 31
0.0
  0
LINE
  5
1B77
330
1F
100
AcDbEntity
  8
0
  6
Continuous
 62
     7
370
    15
100
AcDbLine
 10
0.8080999095108549
 20
0.0891755847120007
 30
0.0
 11
0.7950999095108789
 21
0.0891755847120007
 31
0.0
  0
LINE
  5
1B78
330
1F
100
AcDbEntity
  8
0
  6
Continuous
 62
     7
370
    15
100
AcDbLine
 10
0.7822120538871687
 20
0.0805802125553045
 30
0.0
 11
0.7960999095108544
 21
0.0805897982743922
 31
0.0
  0
LINE
  5
1B79
330
1F
100
AcDbEntity
  8
0
  6
Continuous
 62
     7
370
    15
100
AcDbLine
 10
0.8121453331945124
 20
0.0806020180824022
 30
0.0
 11
0.8070999095108217
 21
0.0805897982743922
 31
0.0
  0
ENDSEC
  0
SECTION
  2
OBJECTS
  0
DICTIONARY
  5
C
330
0
100
AcDbDictionary
281
     1
  3
ACAD_GROUP
350
D
  3
ACAD_IMAGE_VARS
350
1C3B
  3
ACAD_LAYOUT
350
1A
  3
ACAD_MLINESTYLE
350
17
  3
ACAD_PLOTSETTINGS
350
19
  3
ACAD_PLOTSTYLENAME
350
E
  3
ACAD_SCALELIST
350
99
  3
AcDbVariableDictionary
350
59
  3
APPDATA
350
1C3A
  3
DWGPROPS
350
1C5B
  0
DICTIONARY
  5
1BF0
330
10
100
AcDbDictionary
280
     1
281
     1
  3
ADSK_XREC_LAYER_RECONCILED
360
118E
  0
DICTIONARY
  5
1BF1
330
C1
100
AcDbDictionary
280
     1
281
     1
  3
ADSK_XREC_LAYER_RECONCILED
360
1190
  0
DICTIONARY
  5
1BF2
330
100
100
AcDbDictionary
280
     1
281
     1
  3
ADSK_XREC_LAYER_RECONCILED
360
1192
  0
DICTIONARY
  5
1BF3
330
EE3
100
AcDbDictionary
280
     1
281
     1
  3
ADSK_XREC_LAYER_RECONCILED
360
1194
  0
DICTIONARY
  5
D
102
{ACAD_REACTORS
330
C
102
}
330
C
100
AcDbDictionary
281
     1
  0
RASTERVARIABLES
  5
1C3B
102
{ACAD_REACTORS
330
C
102
}
330
C
100
AcDbRasterVariables
 90
        0
 70
     1
 71
     1
 72
     5
  0
DICTIONARY
  5
1A
102
{ACAD_REACTORS
330
C
102
}
330
C
100
AcDbDictionary
281
     1
  3
Layout1
350
74
  3
Layout2
350
BF
  3
Model
350
22
  0
DICTIONARY
  5
17
102
{ACAD_REACTORS
330
C
102
}
330
C
100
AcDbDictionary
281
     1
  3
Standard
350
18
  0
DICTIONARY
  5
19
102
{ACAD_REACTORS
330
C
102
}
330
C
100
AcDbDictionary
281
     1
  0
ACDBDICTIONARYWDFLT
  5
E
102
{ACAD_REACTORS
330
C
102
}
330
C
100
AcDbDictionary
281
     1
  3
Normal
350
F
100
AcDbDictionaryWithDefault
340
F
  0
DICTIONARY
  5
99
102
{ACAD_REACTORS
330
C
102
}
330
C
100
AcDbDictionary
281
     1
  3
A0
350
1D9
  3
A1
350
1DA
  3
A2
350
1DB
  3
A3
350
1DC
  3
A4
350
1DD
  3
A5
350
1DE
  3
A6
350
1DF
  3
A7
350
1E0
  3
A8
350
1E1
  3
A9
350
1E2
  3
B0
350
1E3
  3
B1
350
1E4
  3
B2
350
1E5
  3
B3
350
1E6
  3
B4
350
1E7
  3
B5
350
1E8
  3
B6
350
1E9
  3
B7
350
1EA
  3
B8
350
1EB
  3
B9
350
1EC
  3
C0
350
1ED
  3
C1
350
1EE
  3
C2
350
1EF
  3
C3
350
1F0
  3
C4
350
1F1
  3
C5
350
1F2
  3
C6
350
1F3
  3
C7
350
1F4
  3
C8
350
1F5
  3
C9
350
1F6
  3
D0
350
1F7
  3
D1
350
1F8
  3
D2
350
1F9
  0
DICTIONARY
  5
59
102
{ACAD_REACTORS
330
C
102
}
330
C
100
AcDbDictionary
281
     1
  3
CANNOSCALE
350
1C5C
  3
DIMASSOC
350
1D7
  3
HIDETEXT
350
1D8
  0
DICTIONARY
  5
1C3A
102
{ACAD_REACTORS
330
C
102
}
330
C
100
AcDbDictionary
281
     1
  0
XRECORD
  5
1C5B
102
{ACAD_REACTORS
330
C
102
}
330
C
100
AcDbXrecord
280
     1
  1
DWGPROPS COOKIE
  2

  3

  4

  6

  7

  8
Andrea.Obradors
  9

300
=
301
=
302
=
303
=
304
=
305
=
306
=
307
=
308
=
309
=
 40
0.0
 41
2453353.717125822
 42
2456625.534168472
  1

 90
        0
  0
XRECORD
  5
118E
102
{ACAD_REACTORS
330
1BF0
102
}
330
1BF0
100
AcDbXrecord
280
     1
290
     1
  0
XRECORD
  5
1190
102
{ACAD_REACTORS
330
1BF1
102
}
330
1BF1
100
AcDbXrecord
280
     1
290
     1
  0
XRECORD
  5
1192
102
{ACAD_REACTORS
330
1BF2
102
}
330
1BF2
100
AcDbXrecord
280
     1
290
     1
  0
XRECORD
  5
1194
102
{ACAD_REACTORS
330
1BF3
102
}
330
1BF3
100
AcDbXrecord
280
     1
290
     1
  0
LAYOUT
  5
74
102
{ACAD_REACTORS
330
1A
102
}
330
1A
100
AcDbPlotSettings
  1

  2
\\ADSCCNDC1\hq601xrx1
  4

  6

 40
0.0
 41
0.0
 42
0.0
 43
0.0
 44
0.0
 45
0.0
 46
0.0
 47
0.0
 48
0.0
 49
0.0
140
0.0
141
0.0
142
1.0
143
1.0
 70
   688
 72
     0
 73
     0
 74
     5
  7

 75
    16
147
1.0
148
0.0
149
0.0
100
AcDbLayout
  1
Layout1
 70
     1
 71
     1
 10
0.0
 20
0.0
 11
12.0
 21
9.0
 12
0.0
 22
0.0
 32
0.0
 14
0.0
 24
0.0
 34
0.0
 15
0.0
 25
0.0
 35
0.0
146
0.0
 13
0.0
 23
0.0
 33
0.0
 16
1.0
 26
0.0
 36
0.0
 17
0.0
 27
1.0
 37
0.0
 76
     0
330
73
  0
LAYOUT
  5
BF
102
{ACAD_REACTORS
330
1A
102
}
330
1A
100
AcDbPlotSettings
  1

  2
none_device
  4
Sun_Hi-Res_(1280.00_x_1600.00_Pixels)
  6

 40
0.0
 41
0.0
 42
0.0
 43
0.0
 44
1280.0
 45
1600.0
 46
0.0
 47
0.0
 48
0.0
 49
0.0
140
0.0
141
0.0
142
1.0
143
1.0
 70
   544
 72
     2
 73
     0
 74
     5
  7

 75
    16
147
1.0
148
0.0
149
0.0
100
AcDbLayout
  1
Layout2
 70
     1
 71
     2
 10
0.0
 20
0.0
 11
12.0
 21
9.0
 12
0.0
 22
0.0
 32
0.0
 14
1.000000000000000E+20
 24
1.000000000000000E+20
 34
1.000000000000000E+20
 15
-1.000000000000000E+20
 25
-1.000000000000000E+20
 35
-1.000000000000000E+20
146
0.0
 13
0.0
 23
0.0
 33
0.0
 16
1.0
 26
0.0
 36
0.0
 17
0.0
 27
1.0
 37
0.0
 76
     0
330
BE
  0
LAYOUT
  5
22
102
{ACAD_REACTORS
330
1A
102
}
330
1A
100
AcDbPlotSettings
  1

  2
none_device
  4
Sun_Hi-Res_(1280.00_x_1600.00_Pixels)
  6

 40
6.349999904632567
 41
6.349999904632567
 42
6.350006103515625
 43
6.350006103515625
 44
1280.0
 45
1600.0
 46
0.0
 47
0.0
 48
-0.5419
 49
-1.2308
140
1.1116
141
0.9264000000000001
142
1.0
143
0.00134825
 70
 11956
 72
     2
 73
     0
 74
     4
  7

 75
     0
147
0.28088241027059
148
0.1311165230791651
149
0.096403374003771
100
AcDbLayout
  1
Model
 70
     1
 71
     0
 10
0.0
 20
0.0
 11
12.0
 21
9.0
 12
0.0
 22
0.0
 32
0.0
 14
-0.3511977873369376
 24
-1.067399605476886
 34
0.0
 15
0.8168380731250463
 25
0.8031190184812543
 35
0.0
146
0.0
 13
0.0
 23
0.0
 33
0.0
 16
1.0
 26
0.0
 36
0.0
 17
0.0
 27
1.0
 37
0.0
 76
     0
330
1F
331
97
  0
MLINESTYLE
  5
18
102
{ACAD_REACTORS
330
17
102
}
330
17
100
AcDbMlineStyle
  2
Standard
 70
     0
  3

 62
   256
 51
90.0
 52
90.0
 71
     2
 49
0.5
 62
   256
  6
BYLAYER
 49
-0.5
 62
   256
  6
BYLAYER
  0
ACDBPLACEHOLDER
  5
F
102
{ACAD_REACTORS
330
E
102
}
330
E
  0
SCALE
  5
1D9
102
{ACAD_REACTORS
330
99
102
}
330
99
100
AcDbScale
 70
     0
300
1:1
140
1.0
141
1.0
290
     1
  0
SCALE
  5
1DA
102
{ACAD_REACTORS
330
99
102
}
330
99
100
AcDbScale
 70
     0
300
1:2
140
1.0
141
2.0
290
     0
  0
SCALE
  5
1DB
102
{ACAD_REACTORS
330
99
102
}
330
99
100
AcDbScale
 70
     0
300
1:4
140
1.0
141
4.0
290
     0
  0
SCALE
  5
1DC
102
{ACAD_REACTORS
330
99
102
}
330
99
100
AcDbScale
 70
     0
300
1:5
140
1.0
141
5.0
290
     0
  0
SCALE
  5
1DD
102
{ACAD_REACTORS
330
99
102
}
330
99
100
AcDbScale
 70
     0
300
1:8
140
1.0
141
8.0
290
     0
  0
SCALE
  5
1DE
102
{ACAD_REACTORS
330
99
102
}
330
99
100
AcDbScale
 70
     0
300
1:10
140
1.0
141
10.0
290
     0
  0
SCALE
  5
1DF
102
{ACAD_REACTORS
330
99
102
}
330
99
100
AcDbScale
 70
     0
300
1:16
140
1.0
141
16.0
290
     0
  0
SCALE
  5
1E0
102
{ACAD_REACTORS
330
99
102
}
330
99
100
AcDbScale
 70
     0
300
1:20
140
1.0
141
20.0
290
     0
  0
SCALE
  5
1E1
102
{ACAD_REACTORS
330
99
102
}
330
99
100
AcDbScale
 70
     0
300
1:30
140
1.0
141
30.0
290
     0
  0
SCALE
  5
1E2
102
{ACAD_REACTORS
330
99
102
}
330
99
100
AcDbScale
 70
     0
300
1:40
140
1.0
141
40.0
290
     0
  0
SCALE
  5
1E3
102
{ACAD_REACTORS
330
99
102
}
330
99
100
AcDbScale
 70
     0
300
1:50
140
1.0
141
50.0
290
     0
  0
SCALE
  5
1E4
102
{ACAD_REACTORS
330
99
102
}
330
99
100
AcDbScale
 70
     0
300
1:100
140
1.0
141
100.0
290
     0
  0
SCALE
  5
1E5
102
{ACAD_REACTORS
330
99
102
}
330
99
100
AcDbScale
 70
     0
300
2:1
140
2.0
141
1.0
290
     0
  0
SCALE
  5
1E6
102
{ACAD_REACTORS
330
99
102
}
330
99
100
AcDbScale
 70
     0
300
4:1
140
4.0
141
1.0
290
     0
  0
SCALE
  5
1E7
102
{ACAD_REACTORS
330
99
102
}
330
99
100
AcDbScale
 70
     0
300
8:1
140
8.0
141
1.0
290
     0
  0
SCALE
  5
1E8
102
{ACAD_REACTORS
330
99
102
}
330
99
100
AcDbScale
 70
     0
300
10:1
140
10.0
141
1.0
290
     0
  0
SCALE
  5
1E9
102
{ACAD_REACTORS
330
99
102
}
330
99
100
AcDbScale
 70
     0
300
100:1
140
100.0
141
1.0
290
     0
  0
SCALE
  5
1EA
102
{ACAD_REACTORS
330
99
102
}
330
99
100
AcDbScale
 70
     0
300
1/128" = 1'-0"
140
0.0078125
141
12.0
290
     0
  0
SCALE
  5
1EB
102
{ACAD_REACTORS
330
99
102
}
330
99
100
AcDbScale
 70
     0
300
1/64" = 1'-0"
140
0.015625
141
12.0
290
     0
  0
SCALE
  5
1EC
102
{ACAD_REACTORS
330
99
102
}
330
99
100
AcDbScale
 70
     0
300
1/32" = 1'-0"
140
0.03125
141
12.0
290
     0
  0
SCALE
  5
1ED
102
{ACAD_REACTORS
330
99
102
}
330
99
100
AcDbScale
 70
     0
300
1/16" = 1'-0"
140
0.0625
141
12.0
290
     0
  0
SCALE
  5
1EE
102
{ACAD_REACTORS
330
99
102
}
330
99
100
AcDbScale
 70
     0
300
3/32" = 1'-0"
140
0.09375
141
12.0
290
     0
  0
SCALE
  5
1EF
102
{ACAD_REACTORS
330
99
102
}
330
99
100
AcDbScale
 70
     0
300
1/8" = 1'-0"
140
0.125
141
12.0
290
     0
  0
SCALE
  5
1F0
102
{ACAD_REACTORS
330
99
102
}
330
99
100
AcDbScale
 70
     0
300
3/16" = 1'-0"
140
0.1875
141
12.0
290
     0
  0
SCALE
  5
1F1
102
{ACAD_REACTORS
330
99
102
}
330
99
100
AcDbScale
 70
     0
300
1/4" = 1'-0"
140
0.25
141
12.0
290
     0
  0
SCALE
  5
1F2
102
{ACAD_REACTORS
330
99
102
}
330
99
100
AcDbScale
 70
     0
300
3/8" = 1'-0"
140
0.375
141
12.0
290
     0
  0
SCALE
  5
1F3
102
{ACAD_REACTORS
330
99
102
}
330
99
100
AcDbScale
 70
     0
300
1/2" = 1'-0"
140
0.5
141
12.0
290
     0
  0
SCALE
  5
1F4
102
{ACAD_REACTORS
330
99
102
}
330
99
100
AcDbScale
 70
     0
300
3/4" = 1'-0"
140
0.75
141
12.0
290
     0
  0
SCALE
  5
1F5
102
{ACAD_REACTORS
330
99
102
}
330
99
100
AcDbScale
 70
     0
300
1" = 1'-0"
140
1.0
141
12.0
290
     0
  0
SCALE
  5
1F6
102
{ACAD_REACTORS
330
99
102
}
330
99
100
AcDbScale
 70
     0
300
1-1/2" = 1'-0"
140
1.5
141
12.0
290
     0
  0
SCALE
  5
1F7
102
{ACAD_REACTORS
330
99
102
}
330
99
100
AcDbScale
 70
     0
300
3" = 1'-0"
140
3.0
141
12.0
290
     0
  0
SCALE
  5
1F8
102
{ACAD_REACTORS
330
99
102
}
330
99
100
AcDbScale
 70
     0
300
6" = 1'-0"
140
6.0
141
12.0
290
     0
  0
SCALE
  5
1F9
102
{ACAD_REACTORS
330
99
102
}
330
99
100
AcDbScale
 70
     0
300
1'-0" = 1'-0"
140
12.0
141
12.0
290
     0
  0
DICTIONARYVAR
  5
1C5C
102
{ACAD_REACTORS
330
59
102
}
330
59
100
DictionaryVariables
280
     0
  1
1:1
  0
DICTIONARYVAR
  5
1D7
102
{ACAD_REACTORS
330
59
102
}
330
59
100
DictionaryVariables
280
     0
  1
2
  0
DICTIONARYVAR
  5
1D8
102
{ACAD_REACTORS
330
59
102
}
330
59
100
DictionaryVariables
280
     0
  1
1
  0
ENDSEC
  0
EOF
