  0
SECTION
  2
HEADER
  9
$ACADVER
  1
AC1015
  9
$ACADMAINTVER
 70
     6
  9
$DWGCODEPAGE
  3
ANSI_1252
  9
$INSBASE
 10
0.0
 20
0.0
 30
0.0
  9
$EXTMIN
 10
-0.3511977873369376
 20
-0.7881403552270909
 30
0.0
  9
$EXTMAX
 10
0.6676012784149675
 20
0.8031190184812543
 30
0.0
  9
$LIMMIN
 10
0.0
 20
0.0
  9
$LIMMAX
 10
12.0
 20
9.0
  9
$ORTHOMODE
 70
     1
  9
$REGENMODE
 70
     1
  9
$FILLMODE
 70
     1
  9
$QTEXTMODE
 70
     0
  9
$MIRRTEXT
 70
     0
  9
$LTSCALE
 40
1.0
  9
$ATTMODE
 70
     1
  9
$TEXTSIZE
 40
0.2
  9
$TRACEWID
 40
0.05
  9
$TEXTSTYLE
  7
Standard
  9
$CLAYER
  8
0
  9
$CELTYPE
  6
ByLayer
  9
$CECOLOR
 62
   256
  9
$CELTSCALE
 40
1.0
  9
$DISPSILH
 70
     0
  9
$DIMSCALE
 40
1.0
  9
$DIMASZ
 40
0.1
  9
$DIMEXO
 40
0.02
  9
$DIMDLI
 40
0.38
  9
$DIMRND
 40
0.0
  9
$DIMDLE
 40
0.0
  9
$DIMEXE
 40
0.018
  9
$DIMTP
 40
0.0
  9
$DIMTM
 40
0.0
  9
$DIMTXT
 40
0.2
  9
$DIMCEN
 40
0.0
  9
$DIMTSZ
 40
0.0
  9
$DIMTOL
 70
     0
  9
$DIMLIM
 70
     0
  9
$DIMTIH
 70
     0
  9
$DIMTOH
 70
     0
  9
$DIMSE1
 70
     0
  9
$DIMSE2
 70
     0
  9
$DIMTAD
 70
     0
  9
$DIMZIN
 70
     0
  9
$DIMBLK
  1
NONE
  9
$DIMASO
 70
     1
  9
$DIMSHO
 70
     1
  9
$DIMPOST
  1

  9
$DIMAPOST
  1

  9
$DIMALT
 70
     0
  9
$DIMALTD
 70
     2
  9
$DIMALTF
 40
25.4
  9
$DIMLFAC
 40
1.0
  9
$DIMTOFL
 70
     0
  9
$DIMTVP
 40
0.0
  9
$DIMTIX
 70
     0
  9
$DIMSOXD
 70
     0
  9
$DIMSAH
 70
     0
  9
$DIMBLK1
  1

  9
$DIMBLK2
  1

  9
$DIMSTYLE
  2
S&C_cotas
  9
$DIMCLRD
 70
   256
  9
$DIMCLRE
 70
   256
  9
$DIMCLRT
 70
   256
  9
$DIMTFAC
 40
1.0
  9
$DIMGAP
 40
0.0
  9
$DIMJUST
 70
     0
  9
$DIMSD1
 70
     1
  9
$DIMSD2
 70
     1
  9
$DIMTOLJ
 70
     1
  9
$DIMTZIN
 70
     0
  9
$DIMALTZ
 70
     0
  9
$DIMALTTZ
 70
     0
  9
$DIMUPT
 70
     0
  9
$DIMDEC
 70
     0
  9
$DIMTDEC
 70
     0
  9
$DIMALTU
 70
     2
  9
$DIMALTTD
 70
     2
  9
$DIMTXSTY
  7
ARIAL
  9
$DIMAUNIT
 70
     0
  9
$DIMADEC
 70
     2
  9
$DIMALTRND
 40
0.0
  9
$DIMAZIN
 70
     0
  9
$DIMDSEP
 70
    46
  9
$DIMATFIT
 70
     3
  9
$DIMFRAC
 70
     0
  9
$DIMLDRBLK
  1
NONE
  9
$DIMLUNIT
 70
     2
  9
$DIMLWD
 70
    -2
  9
$DIMLWE
 70
    -2
  9
$DIMTMOVE
 70
     0
  9
$LUNITS
 70
     2
  9
$LUPREC
 70
     4
  9
$SKETCHINC
 40
0.1
  9
$FILLETRAD
 40
0.0
  9
$AUNITS
 70
     0
  9
$AUPREC
 70
     0
  9
$MENU
  1
.
  9
$ELEVATION
 40
0.0
  9
$PELEVATION
 40
0.0
  9
$THICKNESS
 40
0.0
  9
$LIMCHECK
 70
     0
  9
$CHAMFERA
 40
0.0
  9
$CHAMFERB
 40
0.0
  9
$CHAMFERC
 40
0.0
  9
$CHAMFERD
 40
0.0
  9
$SKPOLY
 70
     0
  9
$TDCREATE
 40
2453353.758792488
  9
$TDUCREATE
 40
2453353.717125822
  9
$TDUPDATE
 40
2456377.592582928
  9
$TDUUPDATE
 40
2456377.550916262
  9
$TDINDWG
 40
0.1711279051
  9
$TDUSRTIMER
 40
2456377.550140532
  9
$USRTIMER
 70
     1
  9
$ANGBASE
 50
0.0
  9
$ANGDIR
 70
     0
  9
$PDMODE
 70
     0
  9
$PDSIZE
 40
0.0
  9
$PLINEWID
 40
0.0
  9
$SPLFRAME
 70
     0
  9
$SPLINETYPE
 70
     6
  9
$SPLINESEGS
 70
     8
  9
$HANDSEED
  5
1C03
  9
$SURFTAB1
 70
     6
  9
$SURFTAB2
 70
     6
  9
$SURFTYPE
 70
     6
  9
$SURFU
 70
     6
  9
$SURFV
 70
     6
  9
$UCSBASE
  2

  9
$UCSNAME
  2

  9
$UCSORG
 10
0.0
 20
0.0
 30
0.0
  9
$UCSXDIR
 10
1.0
 20
0.0
 30
0.0
  9
$UCSYDIR
 10
0.0
 20
1.0
 30
0.0
  9
$UCSORTHOREF
  2

  9
$UCSORTHOVIEW
 70
     0
  9
$UCSORGTOP
 10
0.0
 20
0.0
 30
0.0
  9
$UCSORGBOTTOM
 10
0.0
 20
0.0
 30
0.0
  9
$UCSORGLEFT
 10
0.0
 20
0.0
 30
0.0
  9
$UCSORGRIGHT
 10
0.0
 20
0.0
 30
0.0
  9
$UCSORGFRONT
 10
0.0
 20
0.0
 30
0.0
  9
$UCSORGBACK
 10
0.0
 20
0.0
 30
0.0
  9
$PUCSBASE
  2

  9
$PUCSNAME
  2

  9
$PUCSORG
 10
0.0
 20
0.0
 30
0.0
  9
$PUCSXDIR
 10
1.0
 20
0.0
 30
0.0
  9
$PUCSYDIR
 10
0.0
 20
1.0
 30
0.0
  9
$PUCSORTHOREF
  2

  9
$PUCSORTHOVIEW
 70
     0
  9
$PUCSORGTOP
 10
0.0
 20
0.0
 30
0.0
  9
$PUCSORGBOTTOM
 10
0.0
 20
0.0
 30
0.0
  9
$PUCSORGLEFT
 10
0.0
 20
0.0
 30
0.0
  9
$PUCSORGRIGHT
 10
0.0
 20
0.0
 30
0.0
  9
$PUCSORGFRONT
 10
0.0
 20
0.0
 30
0.0
  9
$PUCSORGBACK
 10
0.0
 20
0.0
 30
0.0
  9
$USERI1
 70
     0
  9
$USERI2
 70
     0
  9
$USERI3
 70
     0
  9
$USERI4
 70
     0
  9
$USERI5
 70
     0
  9
$USERR1
 40
0.0
  9
$USERR2
 40
0.0
  9
$USERR3
 40
0.0
  9
$USERR4
 40
0.0
  9
$USERR5
 40
0.0
  9
$WORLDVIEW
 70
     1
  9
$SHADEDGE
 70
     3
  9
$SHADEDIF
 70
    70
  9
$TILEMODE
 70
     1
  9
$MAXACTVP
 70
    64
  9
$PINSBASE
 10
0.0
 20
0.0
 30
0.0
  9
$PLIMCHECK
 70
     0
  9
$PEXTMIN
 10
0.0
 20
0.0
 30
0.0
  9
$PEXTMAX
 10
0.0
 20
0.0
 30
0.0
  9
$PLIMMIN
 10
0.0
 20
0.0
  9
$PLIMMAX
 10
0.0
 20
0.0
  9
$UNITMODE
 70
     0
  9
$VISRETAIN
 70
     1
  9
$PLINEGEN
 70
     0
  9
$PSLTSCALE
 70
     1
  9
$TREEDEPTH
 70
  3020
  9
$CMLSTYLE
  2
Standard
  9
$CMLJUST
 70
     0
  9
$CMLSCALE
 40
1.0
  9
$PROXYGRAPHICS
 70
     1
  9
$MEASUREMENT
 70
     0
  9
$CELWEIGHT
370
    -1
  9
$ENDCAPS
280
     0
  9
$JOINSTYLE
280
     0
  9
$LWDISPLAY
290
     0
  9
$INSUNITS
 70
     1
  9
$HYPERLINKBASE
  1

  9
$STYLESHEET
  1

  9
$XEDIT
290
     0
  9
$CEPSNTYPE
380
     0
  9
$PSTYLEMODE
290
     0
  9
$FINGERPRINTGUID
  2
{8BAE0D3F-6380-4E3D-B0D1-267E31F469C1}
  9
$VERSIONGUID
  2
{8E70422B-437C-47F9-9F9C-DB5263B1F70E}
  9
$EXTNAMES
290
     1
  9
$PSVPSCALE
 40
0.0
  9
$OLESTARTUP
290
     0
  0
ENDSEC
  0
SECTION
  2
CLASSES
  0
CLASS
  1
ACDBDICTIONARYWDFLT
  2
AcDbDictionaryWithDefault
  3
ObjectDBX Classes
 90
        0
280
     0
281
     0
  0
CLASS
  1
ACDBPLACEHOLDER
  2
AcDbPlaceHolder
  3
ObjectDBX Classes
 90
        0
280
     0
281
     0
  0
CLASS
  1
LAYOUT
  2
AcDbLayout
  3
ObjectDBX Classes
 90
        0
280
     0
281
     0
  0
CLASS
  1
DICTIONARYVAR
  2
AcDbDictionaryVar
  3
ObjectDBX Classes
 90
        0
280
     0
281
     0
  0
CLASS
  1
TABLESTYLE
  2
AcDbTableStyle
  3
ObjectDBX Classes
 90
     4095
280
     0
281
     0
  0
CLASS
  1
SCALE
  2
AcDbScale
  3
ObjectDBX Classes
 90
     1153
280
     0
281
     0
  0
CLASS
  1
MATERIAL
  2
AcDbMaterial
  3
ObjectDBX Classes
 90
     1153
280
     0
281
     0
  0
CLASS
  1
MLEADERSTYLE
  2
AcDbMLeaderStyle
  3
ACDB_MLEADERSTYLE_CLASS
 90
     4095
280
     0
281
     0
  0
CLASS
  1
VISUALSTYLE
  2
AcDbVisualStyle
  3
ObjectDBX Classes
 90
     4095
280
     0
281
     0
  0
CLASS
  1
CELLSTYLEMAP
  2
AcDbCellStyleMap
  3
ObjectDBX Classes
 90
     1152
280
     0
281
     0
  0
CLASS
  1
RASTERVARIABLES
  2
AcDbRasterVariables
  3
ISM
 90
        0
280
     0
281
     0
  0
ENDSEC
  0
SECTION
  2
TABLES
  0
TABLE
  2
VPORT
  5
8
330
0
100
AcDbSymbolTable
 70
     2
  0
VPORT
  5
97
330
8
100
AcDbSymbolTableRecord
100
AcDbViewportTableRecord
  2
*Active
 70
     0
 10
0.0
 20
0.0
 11
1.0
 21
1.0
 12
0.9325657196656238
 22
-0.3876342287626509
 13
0.0
 23
0.0
 14
0.5
 24
0.5
 15
0.5
 25
0.5
 16
0.0
 26
0.0
 36
1.0
 17
0.0
 27
0.0
 37
0.0
 40
3.016495955194685
 41
1.45679012345679
 42
50.0
 43
0.0
 44
0.0
 50
0.0
 51
0.0
 71
    16
 72
  1000
 73
     1
 74
     1
 75
     0
 76
     0
 77
     0
 78
     0
281
     0
 65
     0
110
0.0
120
0.0
130
0.0
111
1.0
121
0.0
131
0.0
112
0.0
122
1.0
132
0.0
 79
     0
146
0.0
  0
ENDTAB
  0
TABLE
  2
LTYPE
  5
5
330
0
100
AcDbSymbolTable
 70
     2
  0
LTYPE
  5
14
330
5
100
AcDbSymbolTableRecord
100
AcDbLinetypeTableRecord
  2
ByBlock
 70
     0
  3

 72
    65
 73
     0
 40
0.0
  0
LTYPE
  5
15
330
5
100
AcDbSymbolTableRecord
100
AcDbLinetypeTableRecord
  2
ByLayer
 70
     0
  3

 72
    65
 73
     0
 40
0.0
  0
LTYPE
  5
16
330
5
100
AcDbSymbolTableRecord
100
AcDbLinetypeTableRecord
  2
Continuous
 70
     0
  3
Solid line
 72
    65
 73
     0
 40
0.0
  0
LTYPE
  5
1BB4
330
5
100
AcDbSymbolTableRecord
100
AcDbLinetypeTableRecord
  2
CENTERX2
 70
     0
  3
Center (2x) ________  __  ________  __  _____
 72
    65
 73
     4
 40
2.032
 49
1.27
 74
     4
 75
     0
340
0
 46
1.0
 50
0.0
 44
0.0
 45
0.0
 49
-0.254
 74
     4
 75
     0
340
0
 46
1.0
 50
0.0
 44
0.0
 45
0.0
 49
0.254
 74
     4
 75
     0
340
0
 46
1.0
 50
0.0
 44
0.0
 45
0.0
 49
-0.254
 74
     4
 75
     0
340
0
 46
1.0
 50
0.0
 44
0.0
 45
0.0
  0
ENDTAB
  0
TABLE
  2
LAYER
  5
2
330
0
100
AcDbSymbolTable
 70
     5
  0
LAYER
  5
10
102
{ACAD_XDICTIONARY
360
1BB5
102
}
330
2
100
AcDbSymbolTableRecord
100
AcDbLayerTableRecord
  2
0
 70
     0
 62
     7
  6
Continuous
370
    -3
390
F
  0
LAYER
  5
C1
102
{ACAD_XDICTIONARY
360
1BB6
102
}
330
2
100
AcDbSymbolTableRecord
100
AcDbLayerTableRecord
  2
S&C_cotas
 70
     0
 62
   251
  6
Continuous
370
    -3
390
F
  0
LAYER
  5
CC
330
2
100
AcDbSymbolTableRecord
100
AcDbLayerTableRecord
  2
DEFPOINTS
 70
     0
 62
     7
  6
Continuous
290
     0
370
    -3
390
F
  0
LAYER
  5
100
102
{ACAD_XDICTIONARY
360
1BB7
102
}
330
2
100
AcDbSymbolTableRecord
100
AcDbLayerTableRecord
  2
S&C_vistas
 70
     0
 62
   255
  6
Continuous
370
    -3
390
F
  0
LAYER
  5
EE3
102
{ACAD_XDICTIONARY
360
1BB8
102
}
330
2
100
AcDbSymbolTableRecord
100
AcDbLayerTableRecord
  2
SLD-0
 70
     0
 62
   179
  6
Continuous
370
    -3
390
F
  0
ENDTAB
  0
TABLE
  2
STYLE
  5
3
330
0
100
AcDbSymbolTable
 70
     3
  0
STYLE
  5
11
330
3
100
AcDbSymbolTableRecord
100
AcDbTextStyleTableRecord
  2
Standard
 70
     0
 40
0.0
 41
1.0
 50
0.0
 71
     0
 42
0.2
  3
txt
  4

  0
STYLE
  5
C2
330
3
100
AcDbSymbolTableRecord
100
AcDbTextStyleTableRecord
  2
ARIAL
 70
     0
 40
0.0
 41
1.0
 50
0.0
 71
     0
 42
15.0
  3
ARIAL.TTF
  4

1001
ACAD
1000
Arial
1071
       34
  0
STYLE
  5
B7F
330
3
100
AcDbSymbolTableRecord
100
AcDbTextStyleTableRecord
  2
SLDTEXTSTYLE0
 70
     0
 40
0.0
 41
0.605
 50
0.0
 71
     0
 42
0.2
  3
TXT
  4

  0
ENDTAB
  0
TABLE
  2
VIEW
  5
6
330
0
100
AcDbSymbolTable
 70
     0
  0
ENDTAB
  0
TABLE
  2
UCS
  5
7
330
0
100
AcDbSymbolTable
 70
     0
  0
ENDTAB
  0
TABLE
  2
APPID
  5
9
330
0
100
AcDbSymbolTable
 70
     5
  0
APPID
  5
12
330
9
100
AcDbSymbolTableRecord
100
AcDbRegAppTableRecord
  2
ACAD
 70
     0
  0
APPID
  5
1BB0
330
9
100
AcDbSymbolTableRecord
100
AcDbRegAppTableRecord
  2
ACAD_DSTYLE_DIMJAG
 70
     0
  0
APPID
  5
1BB1
330
9
100
AcDbSymbolTableRecord
100
AcDbRegAppTableRecord
  2
ACAD_DSTYLE_DIMTALN
 70
     0
  0
APPID
  5
1BB2
330
9
100
AcDbSymbolTableRecord
100
AcDbRegAppTableRecord
  2
ACAD_EXEMPT_FROM_CAD_STANDARDS
 70
     0
  0
APPID
  5
1BB3
330
9
100
AcDbSymbolTableRecord
100
AcDbRegAppTableRecord
  2
ACAD_MLEADERVER
 70
     0
  0
ENDTAB
  0
TABLE
  2
DIMSTYLE
  5
A
330
0
100
AcDbSymbolTable
 70
     4
100
AcDbDimStyleTable
  0
DIMSTYLE
105
27
330
A
100
AcDbSymbolTableRecord
100
AcDbDimStyleTableRecord
  2
Standard
 70
     0
178
     0
340
11
  0
DIMSTYLE
105
C5
330
A
100
AcDbSymbolTableRecord
100
AcDbDimStyleTableRecord
  2
S&C_cotas
 70
     0
 41
0.1
 42
0.02
 44
0.018
 73
     0
 74
     0
140
0.02
141
0.0
147
0.0
176
   256
177
   256
271
     0
178
   256
179
     2
271
     0
272
     0
281
     1
282
     1
340
C2
341
1BB9
342
1BB9
1001
ACAD_DSTYLE_DIMJAG
1070
   388
1040
1.5
1001
ACAD_DSTYLE_DIMTALN
1070
   392
1070
     0
  0
DIMSTYLE
105
5C6
330
A
100
AcDbSymbolTableRecord
100
AcDbDimStyleTableRecord
  2
Tarifa ACAD
 70
     0
 41
0.5
 42
1.0
 45
0.5
 73
     0
 74
     0
 75
     1
 76
     1
 77
     1
140
1.5
141
1.0
147
1.0
172
     1
178
     0
271
     0
272
     0
340
11
341
1BBC
342
1BBC
  0
DIMSTYLE
105
EE4
330
A
100
AcDbSymbolTableRecord
100
AcDbDimStyleTableRecord
  2
SLDDIMSTYLE0
 70
     0
 41
3.0
 44
0.0
 45
0.000000001
 73
     0
 74
     0
 77
     1
 78
    12
 79
     3
140
3.0
144
0.1
147
0.75
173
     1
178
     0
271
     2
272
     2
284
    12
340
B7F
  0
ENDTAB
  0
TABLE
  2
BLOCK_RECORD
  5
1
330
0
100
AcDbSymbolTable
 70
     3
  0
BLOCK_RECORD
  5
1F
330
1
100
AcDbSymbolTableRecord
100
AcDbBlockTableRecord
  2
*Model_Space
340
22
  0
BLOCK_RECORD
  5
73
330
1
100
AcDbSymbolTableRecord
100
AcDbBlockTableRecord
  2
*Paper_Space
340
74
  0
BLOCK_RECORD
  5
1BB9
330
1
100
AcDbSymbolTableRecord
100
AcDbBlockTableRecord
  2
_NONE
340
0
  0
BLOCK_RECORD
  5
1BBC
330
1
100
AcDbSymbolTableRecord
100
AcDbBlockTableRecord
  2
_DOT
340
0
  0
BLOCK_RECORD
  5
BE
330
1
100
AcDbSymbolTableRecord
100
AcDbBlockTableRecord
  2
*Paper_Space2
340
BF
  0
ENDTAB
  0
ENDSEC
  0
SECTION
  2
BLOCKS
  0
BLOCK
  5
20
330
1F
100
AcDbEntity
  8
0
100
AcDbBlockBegin
  2
*Model_Space
 70
     0
 10
0.0
 20
0.0
 30
0.0
  3
*Model_Space
  1

  0
ENDBLK
  5
21
330
1F
100
AcDbEntity
  8
0
100
AcDbBlockEnd
  0
BLOCK
  5
75
330
73
100
AcDbEntity
 67
     1
  8
0
100
AcDbBlockBegin
  2
*Paper_Space
 70
     0
 10
0.0
 20
0.0
 30
0.0
  3
*Paper_Space
  1

  0
ENDBLK
  5
76
330
73
100
AcDbEntity
 67
     1
  8
0
100
AcDbBlockEnd
  0
BLOCK
  5
1BBA
330
1BB9
100
AcDbEntity
  8
0
100
AcDbBlockBegin
  2
_NONE
 70
     0
 10
0.0
 20
0.0
 30
0.0
  3
_NONE
  1

  0
ENDBLK
  5
1BBB
330
1BB9
100
AcDbEntity
  8
0
100
AcDbBlockEnd
  0
BLOCK
  5
1BBD
330
1BBC
100
AcDbEntity
  8
0
100
AcDbBlockBegin
  2
_DOT
 70
     0
 10
0.0
 20
0.0
 30
0.0
  3
_DOT
  1

  0
LWPOLYLINE
  5
C13
330
1BBC
100
AcDbEntity
  8
0
  6
ByBlock
 62
     0
100
AcDbPolyline
 90
        2
 70
     1
 43
0.5
 10
-0.25
 20
0.0
 42
1.0
 10
0.25
 20
0.0
 42
1.0
  0
LINE
  5
C14
330
1BBC
100
AcDbEntity
  8
0
  6
ByBlock
 62
     0
370
    -2
100
AcDbLine
 10
-0.5
 20
0.0
 30
0.0
 11
-1.0
 21
0.0
 31
0.0
  0
ENDBLK
  5
1BBE
330
1BBC
100
AcDbEntity
  8
0
100
AcDbBlockEnd
  0
BLOCK
  5
1BC4
330
BE
100
AcDbEntity
  8
0
100
AcDbBlockBegin
  2
*Paper_Space2
 70
     0
 10
0.0
 20
0.0
 30
0.0
  3
*Paper_Space2
  1

  0
ENDBLK
  5
1BC5
330
BE
100
AcDbEntity
  8
0
100
AcDbBlockEnd
  0
ENDSEC
  0
SECTION
  2
ENTITIES
  0
MTEXT
  5
C0C
330
1F
100
AcDbEntity
  8
S&C_cotas
  6
Continuous
 62
   251
100
AcDbMText
 10
-0.3273659971445202
 20
0.3751221978759514
 30
0.0
 40
0.02
 41
0.0
 71
     5
 72
     1
  1
Min.50/ Máx.500 cm / Min.19.7/Máx.196.8"
  7
ARIAL
 11
0.0
 21
1.0
 31
0.0
 73
     1
 44
1.0
  0
CIRCLE
  5
C21
330
1F
100
AcDbEntity
  8
0
  6
Continuous
 62
     7
370
    15
100
AcDbCircle
 10
0.367125444244802
 20
-0.7691796810696889
 30
0.0
 40
0.0068469101123583
  0
CIRCLE
  5
C22
330
1F
100
AcDbEntity
  8
0
  6
Continuous
 62
     7
370
    15
100
AcDbCircle
 10
0.367125444244802
 20
-0.7691796810696889
 30
0.0
 40
0.0057935393258504
  0
CIRCLE
  5
C23
330
1F
100
AcDbEntity
  8
0
  6
Continuous
 62
     7
370
    15
100
AcDbCircle
 10
0.367125444244802
 20
-0.7691796810696889
 30
0.0
 40
0.0005793539325794
  0
CIRCLE
  5
C24
330
1F
100
AcDbEntity
  8
0
  6
Continuous
 62
     7
370
    15
100
AcDbCircle
 10
0.1211077498322126
 20
-0.3430109598436664
 30
0.0
 40
0.0068469101123583
  0
CIRCLE
  5
C25
330
1F
100
AcDbEntity
  8
0
  6
Continuous
 62
     7
370
    15
100
AcDbCircle
 10
0.1211077498322126
 20
-0.3430109598436664
 30
0.0
 40
0.0057935393258504
  0
CIRCLE
  5
C26
330
1F
100
AcDbEntity
  8
0
  6
Continuous
 62
     7
370
    15
100
AcDbCircle
 10
0.1211077498322126
 20
-0.3430109598436664
 30
0.0
 40
0.0005793539325794
  0
CIRCLE
  5
C27
330
1F
100
AcDbEntity
  8
0
  6
Continuous
 62
     7
370
    15
100
AcDbCircle
 10
0.6131888733502563
 20
-0.3429845549064216
 30
0.0
 40
0.0068469101123583
  0
CIRCLE
  5
C28
330
1F
100
AcDbEntity
  8
0
  6
Continuous
 62
     7
370
    15
100
AcDbCircle
 10
0.6131888733502563
 20
-0.3429845549064216
 30
0.0
 40
0.0005793539325794
  0
CIRCLE
  5
C29
330
1F
100
AcDbEntity
  8
0
  6
Continuous
 62
     7
370
    15
100
AcDbCircle
 10
0.6131888733502563
 20
-0.3429845549064216
 30
0.0
 40
0.0057935393258504
  0
LINE
  5
C2A
330
1F
100
AcDbEntity
  8
0
  6
Continuous
 62
     7
370
    15
100
AcDbLine
 10
0.115050878685758
 20
-0.3462038218367159
 30
0.0
 11
0.1109130132834579
 21
-0.3438148289315749
 31
0.0
  0
LINE
  5
C2B
330
1F
100
AcDbEntity
  8
0
  6
Continuous
 62
     7
370
    15
100
AcDbLine
 10
0.137368143244565
 20
-0.3590887053359966
 30
0.0
 11
0.121371084820276
 21
-0.3498528064697756
 31
0.0
  0
LINE
  5
C2C
330
1F
100
AcDbEntity
  8
0
  6
Continuous
 62
     7
370
    15
100
AcDbLine
 10
0.1208444062078726
 20
-0.3361691140955462
 30
0.0
 11
0.1167065526093082
 21
-0.3337801244635665
 31
0.0
  0
LINE
  5
C2D
330
1F
100
AcDbEntity
  8
0
  6
Continuous
 62
     7
370
    15
100
AcDbLine
 10
0.1431616825704153
 20
-0.3490540008679863
 30
0.0
 11
0.127164643735278
 21
-0.3398180987286059
 31
0.0
  0
LINE
  5
C2E
330
1F
100
AcDbEntity
  8
0
  6
Continuous
 62
     7
370
    15
100
AcDbLine
 10
0.1252645259328
 20
-0.3484516944419864
 30
0.0
 11
0.1332833345837158
 21
-0.3530813565132265
 31
0.0
  0
LINE
  5
C2F
330
1F
100
AcDbEntity
  8
0
  6
Continuous
 62
     7
370
    15
100
AcDbLine
 10
0.1126844591394942
 20
-0.3411885902305255
 30
0.0
 11
0.1143175720334213
 21
-0.3421314569146351
 31
0.0
  0
ARC
  5
C30
330
1F
100
AcDbEntity
  8
0
  6
Continuous
 62
     7
370
    15
100
AcDbCircle
 10
0.1274934708572956
 20
-0.3466977575964955
 30
0.0
 40
0.0158005617977354
100
AcDbArc
 50
140.4059317732435
 51
159.5940682269913
  0
LINE
  5
C31
330
1F
100
AcDbEntity
  8
0
  6
Continuous
 62
     7
370
    15
100
AcDbLine
 10
0.1169509964882635
 20
-0.3375702261232253
 30
0.0
 11
0.1153178861057639
 21
-0.3366273609268163
 31
0.0
  0
LINE
  5
C32
330
1F
100
AcDbEntity
  8
0
  6
Continuous
 62
     7
370
    15
100
AcDbLine
 10
0.1359167615500131
 20
-0.3485201272096363
 30
0.0
 11
0.1278979503876698
 21
-0.3438904636506849
 31
0.0
  0
ARC
  5
C33
330
1F
100
AcDbEntity
  8
0
  6
Continuous
 62
     7
370
    15
100
AcDbCircle
 10
0.1211077498322126
 20
-0.3430109598436664
 30
0.0
 40
0.0158005617977354
100
AcDbArc
 50
320.4059317732435
 51
339.5940682269912
  0
LINE
  5
C34
330
1F
100
AcDbEntity
  8
0
  6
Continuous
 62
     7
370
    15
100
AcDbLine
 10
0.1097563318810372
 20
-0.3394980351696056
 30
0.0
 11
0.1123897588473354
 21
-0.3349368058659055
 31
0.0
  0
ARC
  5
C35
330
1F
100
AcDbEntity
  8
0
  6
Continuous
 62
     7
370
    15
100
AcDbCircle
 10
0.1124930694632482
 20
-0.3410780913494261
 30
0.0
 40
0.003160112359571
100
AcDbArc
 50
149.9999999993048
 51
239.9999999992826
  0
ARC
  5
C36
330
1F
100
AcDbEntity
  8
0
  6
Continuous
 62
     7
370
    15
100
AcDbCircle
 10
0.115126496429518
 20
-0.3365168620457152
 30
0.0
 40
0.0031601123595322
100
AcDbArc
 50
59.99999999949347
 51
149.9999999995298
  0
LWPOLYLINE
  5
C37
330
1F
100
AcDbEntity
  8
0
  6
Continuous
 62
     7
370
    15
100
AcDbPolyline
 90
        8
 70
   128
 43
0.0
 10
0.1410171357101361
 20
-0.3611954521239448
 10
0.1409987708660977
 20
-0.361184857021576
 10
0.140801623480649
 20
-0.361071026381606
 10
0.1403992921284142
 20
-0.3608387346492554
 10
0.1398157609817403
 20
-0.3605018417882463
 10
0.1390859703336886
 20
-0.3600805020376655
 10
0.1382535249165002
 20
-0.3595998768033358
 10
0.1373681510769628
 20
-0.3590887062815353
  0
LWPOLYLINE
  5
C38
330
1F
100
AcDbEntity
  8
0
  6
Continuous
 62
     7
370
    15
100
AcDbPolyline
 90
        8
 70
   128
 43
0.0
 10
0.1468106632322232
 20
-0.3511607443827751
 10
0.1467923297810997
 20
-0.3511501492804062
 10
0.146595182395651
 20
-0.3510363343367162
 10
0.1461928196505013
 20
-0.3508040269080855
 10
0.1456093198967423
 20
-0.3504671340470749
 10
0.1448795292487474
 20
-0.3500457942964957
 10
0.1440470524385872
 20
-0.3495651690621662
 10
0.1431616785991067
 20
-0.3490539985403655
  0
LINE
  5
C39
330
1F
100
AcDbEntity
  8
0
  6
Continuous
 62
     7
370
    15
100
AcDbLine
 10
0.6134522216929411
 20
-0.3361427091583015
 30
0.0
 11
0.6175900705731606
 21
-0.3337537195263217
 31
0.0
  0
LINE
  5
C3A
330
1F
100
AcDbEntity
  8
0
  6
Continuous
 62
     7
370
    15
100
AcDbLine
 10
0.5911349406120535
 20
-0.3490275959307415
 30
0.0
 11
0.6071319841655366
 21
-0.3397916937913611
 31
0.0
  0
LINE
  5
C3B
330
1F
100
AcDbEntity
  8
0
  6
Continuous
 62
     7
370
    15
100
AcDbLine
 10
0.6192457492150282
 20
-0.3461774168994712
 30
0.0
 11
0.6233836098989826
 21
-0.3437884239943302
 31
0.0
  0
LINE
  5
C3C
330
1F
100
AcDbEntity
  8
0
  6
Continuous
 62
     7
370
    15
100
AcDbLine
 10
0.5969284799379048
 20
-0.3590623003987518
 30
0.0
 11
0.612925543080567
 21
-0.3498264015325309
 31
0.0
  0
LINE
  5
C3D
330
1F
100
AcDbEntity
  8
0
  6
Continuous
 62
     7
370
    15
100
AcDbLine
 10
0.6063986775131723
 20
-0.3438640587134402
 30
0.0
 11
0.5983798616324539
 21
-0.3484937222723915
 31
0.0
  0
LINE
  5
C3E
330
1F
100
AcDbEntity
  8
0
  6
Continuous
 62
     7
370
    15
100
AcDbLine
 10
0.6189787370766765
 20
-0.3366009559895716
 30
0.0
 11
0.6173456314125786
 21
-0.3375438211859806
 31
0.0
  0
ARC
  5
C3F
330
1F
100
AcDbEntity
  8
0
  6
Continuous
 62
     7
370
    15
100
AcDbCircle
 10
0.6068031523251732
 20
-0.3466713526592508
 30
0.0
 40
0.0158005617977688
100
AcDbArc
 50
20.40593177318212
 51
39.59406822692988
  0
LINE
  5
C40
330
1F
100
AcDbEntity
  8
0
  6
Continuous
 62
     7
370
    15
100
AcDbLine
 10
0.61997905586742
 20
-0.3421050519773904
 30
0.0
 11
0.6216121640429747
 21
-0.3411621852932807
 31
0.0
  0
LINE
  5
C41
330
1F
100
AcDbEntity
  8
0
  6
Continuous
 62
     7
370
    15
100
AcDbLine
 10
0.601013288598753
 20
-0.3530549515759817
 30
0.0
 11
0.609032101968043
 21
-0.3484252895047416
 31
0.0
  0
ARC
  5
C42
330
1F
100
AcDbEntity
  8
0
  6
Continuous
 62
     7
370
    15
100
AcDbCircle
 10
0.6131888733502563
 20
-0.3429845549064216
 30
0.0
 40
0.0158005617977688
100
AcDbArc
 50
200.4059317731821
 51
219.5940682269299
  0
LINE
  5
C43
330
1F
100
AcDbEntity
  8
0
  6
Continuous
 62
     7
370
    15
100
AcDbLine
 10
0.6219068643351046
 20
-0.3349104009286607
 30
0.0
 11
0.6245402913014032
 21
-0.3394716302323609
 31
0.0
  0
ARC
  5
C44
330
1F
100
AcDbEntity
  8
0
  6
Continuous
 62
     7
370
    15
100
AcDbCircle
 10
0.6191701267529225
 20
-0.3364904571084705
 30
0.0
 40
0.003160112359571
100
AcDbArc
 50
30.00000000069515
 51
120.0000000007315
  0
ARC
  5
C45
330
1F
100
AcDbEntity
  8
0
  6
Continuous
 62
     7
370
    15
100
AcDbCircle
 10
0.6218035537192207
 20
-0.3410516864121814
 30
0.0
 40
0.003160112359518
100
AcDbArc
 50
300.0000000000603
 51
30.00000000003804
  0
LWPOLYLINE
  5
C46
330
1F
100
AcDbEntity
  8
0
  6
Continuous
 62
     7
370
    15
100
AcDbPolyline
 90
        8
 70
   128
 43
0.0
 10
0.5874859646685621
 20
-0.3511343394455303
 10
0.5875042981197424
 20
-0.3511237443431615
 10
0.5877014455051915
 20
-0.3510099293994714
 10
0.5881038082503399
 20
-0.3507776219708408
 10
0.5886873080040426
 20
-0.3504407291098301
 10
0.5894170986520947
 20
-0.350019389359251
 10
0.5902495754622558
 20
-0.3495387641249214
 10
0.5911349493017354
 20
-0.3490275936031207
  0
LWPOLYLINE
  5
C47
330
1F
100
AcDbEntity
  8
0
  6
Continuous
 62
     7
370
    15
100
AcDbPolyline
 90
        8
 70
   128
 43
0.0
 10
0.593279492190706
 20
-0.3611690471867001
 10
0.5932978256418294
 20
-0.3611584520843313
 10
0.593495004420194
 20
-0.3610446214443613
 10
0.5938973357724288
 20
-0.3608123297120106
 10
0.594480866919045
 20
-0.3604754368510016
 10
0.5952106575670967
 20
-0.3600540971004207
 10
0.5960431029843419
 20
-0.3595734718660911
 10
0.5969284768238224
 20
-0.3590623013442905
  0
LINE
  5
C48
330
1F
100
AcDbEntity
  8
0
  6
Continuous
 62
     7
370
    15
100
AcDbLine
 10
0.3729189839363545
 20
-0.7728286725962688
 30
0.0
 11
0.3729189835706532
 21
-0.7776066473617489
 31
0.0
  0
LINE
  5
C49
330
1F
100
AcDbEntity
  8
0
  6
Continuous
 62
     7
370
    15
100
AcDbLine
 10
0.3729189835706532
 20
-0.7470588945529089
 30
0.0
 11
0.3729189839363545
 21
-0.7655307033300289
 31
0.0
  0
LINE
  5
C4A
330
1F
100
AcDbEntity
  8
0
  6
Continuous
 62
     7
370
    15
100
AcDbLine
 10
0.3613319049182411
 20
-0.7728286725962688
 30
0.0
 11
0.3613319049189232
 21
-0.7776066473617489
 31
0.0
  0
LINE
  5
C4B
330
1F
100
AcDbEntity
  8
0
  6
Continuous
 62
     7
370
    15
100
AcDbLine
 10
0.3613319049189232
 20
-0.7470588945529089
 30
0.0
 11
0.3613319049182411
 21
-0.7655307033300289
 31
0.0
  0
LINE
  5
C4C
330
1F
100
AcDbEntity
  8
0
  6
Continuous
 62
     7
370
    15
100
AcDbLine
 10
0.3697588710588451
 20
-0.7628594504356287
 30
0.0
 11
0.3697588712111002
 21
-0.7536001170341589
 31
0.0
  0
LINE
  5
C4D
330
1F
100
AcDbEntity
  8
0
  6
Continuous
 62
     7
370
    15
100
AcDbLine
 10
0.3697588712111002
 20
-0.7773856495996687
 30
0.0
 11
0.3697588710588451
 21
-0.7754998940976388
 31
0.0
  0
ARC
  5
C4E
330
1F
100
AcDbEntity
  8
0
  6
Continuous
 62
     7
370
    15
100
AcDbCircle
 10
0.367125444244802
 20
-0.7618060855641389
 30
0.0
 40
0.0158005617977374
100
AcDbArc
 50
260.4059317731078
 51
279.5940682268395
  0
LINE
  5
C4F
330
1F
100
AcDbEntity
  8
0
  6
Continuous
 62
     7
370
    15
100
AcDbLine
 10
0.364492017243943
 20
-0.7754998940976388
 30
0.0
 11
0.3644920172784762
 21
-0.7773856495996687
 31
0.0
  0
LINE
  5
C50
330
1F
100
AcDbEntity
  8
0
  6
Continuous
 62
     7
370
    15
100
AcDbLine
 10
0.3644920172784762
 20
-0.7536001170341589
 30
0.0
 11
0.364492017243943
 21
-0.7628594504356287
 31
0.0
  0
ARC
  5
C51
330
1F
100
AcDbEntity
  8
0
  6
Continuous
 62
     7
370
    15
100
AcDbCircle
 10
0.367125444244802
 20
-0.7691796810696889
 30
0.0
 40
0.0158005617977374
100
AcDbArc
 50
80.4059317731078
 51
99.59406822682344
  0
LINE
  5
C52
330
1F
100
AcDbEntity
  8
0
  6
Continuous
 62
     7
370
    15
100
AcDbLine
 10
0.3697588712111002
 20
-0.7807667597213899
 30
0.0
 11
0.3644920172784762
 21
-0.7807667597213899
 31
0.0
  0
ARC
  5
C53
330
1F
100
AcDbEntity
  8
0
  6
Continuous
 62
     7
370
    15
100
AcDbCircle
 10
0.3697588712111002
 20
-0.7776066473617489
 30
0.0
 40
0.0031601123595237
100
AcDbArc
 50
270.0
 51
0.0
  0
ARC
  5
C54
330
1F
100
AcDbEntity
  8
0
  6
Continuous
 62
     7
370
    15
100
AcDbCircle
 10
0.3644920172784762
 20
-0.7776066473617489
 30
0.0
 40
0.0031601123595522
100
AcDbArc
 50
180.0
 51
270.0
  0
LINE
  5
C55
330
1F
100
AcDbEntity
  8
0
  6
Continuous
 62
     7
370
    15
100
AcDbLine
 10
0.3729189835706532
 20
-0.742845411406879
 30
0.0
 11
0.3729189835706532
 21
-0.7470588945529089
 31
0.0
  0
LINE
  5
C56
330
1F
100
AcDbEntity
  8
0
  6
Continuous
 62
     7
370
    15
100
AcDbLine
 10
0.3613319049189232
 20
-0.742845411406879
 30
0.0
 11
0.3613319049189232
 21
-0.7470588945529089
 31
0.0
  0
ARC
  5
C58
330
1F
100
AcDbEntity
  8
0
  6
Continuous
 62
     7
370
    15
100
AcDbCircle
 10
0.3697588712111002
 20
-0.7849802428675388
 30
0.0
 40
0.0031601123595237
100
AcDbArc
 50
270.0
 51
0.0
  0
LINE
  5
C59
330
1F
100
AcDbEntity
  8
0
  6
Continuous
 62
     7
370
    15
100
AcDbLine
 10
0.3697588712111002
 20
-0.7881403552270589
 30
0.0
 11
0.3644920172784762
 21
-0.7881403552270589
 31
0.0
  0
LINE
  5
C5A
330
1F
100
AcDbEntity
  8
0
  6
Continuous
 62
     7
370
    15
100
AcDbLine
 10
0.3729189835706532
 20
-0.7776066473617489
 30
0.0
 11
0.3729189835706532
 21
-0.7849802428675388
 31
0.0
  0
LINE
  5
C5B
330
1F
100
AcDbEntity
  8
0
  6
Continuous
 62
     7
370
    15
100
AcDbLine
 10
0.3697588712111002
 20
-0.78475924510534
 30
0.0
 11
0.3697588712111002
 21
-0.7807667597213899
 31
0.0
  0
ARC
  5
C5C
330
1F
100
AcDbEntity
  8
0
  6
Continuous
 62
     7
370
    15
100
AcDbCircle
 10
0.367125444244802
 20
-0.7691796810696889
 30
0.0
 40
0.0158005617977374
100
AcDbArc
 50
260.4059317731078
 51
279.5940682268235
  0
LINE
  5
C5D
330
1F
100
AcDbEntity
  8
0
  6
Continuous
 62
     7
370
    15
100
AcDbLine
 10
0.3644920172784762
 20
-0.7807667597213899
 30
0.0
 11
0.3644920172784762
 21
-0.78475924510534
 31
0.0
  0
LINE
  5
C5F
330
1F
100
AcDbEntity
  8
0
  6
Continuous
 62
     7
370
    15
100
AcDbLine
 10
0.3613319049189232
 20
-0.7776066473617489
 30
0.0
 11
0.3613319049189232
 21
-0.7849802428675388
 31
0.0
  0
ARC
  5
C60
330
1F
100
AcDbEntity
  8
0
  6
Continuous
 62
     7
370
    15
100
AcDbCircle
 10
0.3644920172784762
 20
-0.7849802428675388
 30
0.0
 40
0.0031601123595522
100
AcDbArc
 50
180.0
 51
270.0
  0
ARC
  5
C62
330
1F
100
AcDbEntity
  8
0
  6
Continuous
 62
     7
370
    15
100
AcDbCircle
 10
0.1061073484381367
 20
-0.3373912935965864
 30
0.0
 40
0.003160112359571
100
AcDbArc
 50
149.9999999993048
 51
239.999999999325
  0
LINE
  5
C63
330
1F
100
AcDbEntity
  8
0
  6
Continuous
 62
     7
370
    15
100
AcDbLine
 10
0.1033706108559542
 20
-0.3358112374167764
 30
0.0
 11
0.106004037822224
 21
-0.3312500081131863
 31
0.0
  0
LINE
  5
C64
330
1F
100
AcDbEntity
  8
0
  6
Continuous
 62
     7
370
    15
100
AcDbLine
 10
0.1109130132834579
 20
-0.3438148289315749
 30
0.0
 11
0.1045272922583464
 21
-0.3401280311787457
 31
0.0
  0
LINE
  5
C65
330
1F
100
AcDbEntity
  8
0
  6
Continuous
 62
     7
370
    15
100
AcDbLine
 10
0.1062987381143827
 20
-0.3375017924776856
 30
0.0
 11
0.1097563318810372
 21
-0.3394980351696056
 31
0.0
  0
ARC
  5
C66
330
1F
100
AcDbEntity
  8
0
  6
Continuous
 62
     7
370
    15
100
AcDbCircle
 10
0.1211077498322126
 20
-0.3430109598436664
 30
0.0
 40
0.0158005617977354
100
AcDbArc
 50
140.4059317732435
 51
159.5940682269913
  0
LINE
  5
C67
330
1F
100
AcDbEntity
  8
0
  6
Continuous
 62
     7
370
    15
100
AcDbLine
 10
0.1123897588473354
 20
-0.3349368058659055
 30
0.0
 11
0.1089321650806525
 21
-0.3329405631740955
 31
0.0
  0
LINE
  5
C69
330
1F
100
AcDbEntity
  8
0
  6
Continuous
 62
     7
370
    15
100
AcDbLine
 10
0.1167065526093082
 20
-0.3337801244635665
 30
0.0
 11
0.1103208315841968
 21
-0.3300933267107354
 31
0.0
  0
ARC
  5
C6A
330
1F
100
AcDbEntity
  8
0
  6
Continuous
 62
     7
370
    15
100
AcDbCircle
 10
0.1087407754044349
 20
-0.332830064292886
 30
0.0
 40
0.0031601123595322
100
AcDbArc
 50
59.99999999949347
 51
149.9999999995298
  0
ARC
  5
C6C
330
1F
100
AcDbEntity
  8
0
  6
Continuous
 62
     7
370
    15
100
AcDbCircle
 10
0.625555847778034
 20
-0.3328036593556413
 30
0.0
 40
0.003160112359571
100
AcDbArc
 50
30.00000000069515
 51
120.0000000007315
  0
LINE
  5
C6D
330
1F
100
AcDbEntity
  8
0
  6
Continuous
 62
     7
370
    15
100
AcDbLine
 10
0.6282925853602165
 20
-0.3312236031759416
 30
0.0
 11
0.6309260123265147
 21
-0.3357848324795317
 31
0.0
  0
LINE
  5
C6E
330
1F
100
AcDbEntity
  8
0
  6
Continuous
 62
     7
370
    15
100
AcDbLine
 10
0.6175900705731606
 20
-0.3337537195263217
 30
0.0
 11
0.6239757915982721
 21
-0.3300669217734907
 31
0.0
  0
LINE
  5
C6F
330
1F
100
AcDbEntity
  8
0
  6
Continuous
 62
     7
370
    15
100
AcDbLine
 10
0.6253644581017875
 20
-0.3329141582367407
 30
0.0
 11
0.6219068643351046
 21
-0.3349104009286607
 31
0.0
  0
ARC
  5
C70
330
1F
100
AcDbEntity
  8
0
  6
Continuous
 62
     7
370
    15
100
AcDbCircle
 10
0.6131888733502563
 20
-0.3429845549064216
 30
0.0
 40
0.0158005617977688
100
AcDbArc
 50
20.40593177318212
 51
39.59406822692988
  0
LINE
  5
C71
330
1F
100
AcDbEntity
  8
0
  6
Continuous
 62
     7
370
    15
100
AcDbLine
 10
0.6245402913014032
 20
-0.3394716302323609
 30
0.0
 11
0.6279978850680862
 21
-0.3374753875404409
 31
0.0
  0
LINE
  5
C73
330
1F
100
AcDbEntity
  8
0
  6
Continuous
 62
     7
370
    15
100
AcDbLine
 10
0.6233836098989826
 20
-0.3437884239943302
 30
0.0
 11
0.629769330924094
 21
-0.340101626241501
 31
0.0
  0
ARC
  5
C74
330
1F
100
AcDbEntity
  8
0
  6
Continuous
 62
     7
370
    15
100
AcDbCircle
 10
0.6281892747443322
 20
-0.3373648886593416
 30
0.0
 40
0.003160112359518
100
AcDbArc
 50
300.0000000000603
 51
30.00000000008032
  0
ARC
  5
C75
330
1F
100
AcDbEntity
  8
0
  6
Continuous
 62
     7
370
    15
100
AcDbCircle
 10
0.367125444244802
 20
-0.7691796810696889
 30
0.0
 40
0.0110603932584411
100
AcDbArc
 50
301.5881355052029
 51
359.9999999999961
  0
ARC
  5
C76
330
1F
100
AcDbEntity
  8
0
  6
Continuous
 62
     7
370
    15
100
AcDbCircle
 10
0.367125444244802
 20
-0.7691796810696889
 30
0.0
 40
0.0110603932584411
100
AcDbArc
 50
121.5881355052029
 51
238.4118644947893
  0
ARC
  5
C77
330
1F
100
AcDbEntity
  8
0
  6
Continuous
 62
     7
370
    15
100
AcDbCircle
 10
0.367125444244802
 20
-0.7691796810696889
 30
0.0
 40
0.0110603932584183
100
AcDbArc
 50
0.0
 51
58.4118644947932
  0
ARC
  5
C78
330
1F
100
AcDbEntity
  8
0
  6
Continuous
 62
     7
370
    15
100
AcDbCircle
 10
0.1211077498322126
 20
-0.3430109598436664
 30
0.0
 40
0.0110603932584137
100
AcDbArc
 50
181.5881355051831
 51
239.9999999999474
  0
ARC
  5
C79
330
1F
100
AcDbEntity
  8
0
  6
Continuous
 62
     7
370
    15
100
AcDbCircle
 10
0.1211077498322126
 20
-0.3430109598436664
 30
0.0
 40
0.0110603932584137
100
AcDbArc
 50
1.588135505183144
 51
118.4118644947644
  0
ARC
  5
C7A
330
1F
100
AcDbEntity
  8
0
  6
Continuous
 62
     7
370
    15
100
AcDbCircle
 10
0.1211077498322126
 20
-0.3430109598436664
 30
0.0
 40
0.0110603932584398
100
AcDbArc
 50
239.9999999999792
 51
298.4118644947818
  0
ARC
  5
C7B
330
1F
100
AcDbEntity
  8
0
  6
Continuous
 62
     7
370
    15
100
AcDbCircle
 10
0.6131888733502563
 20
-0.3429845549064216
 30
0.0
 40
0.0110603932584376
100
AcDbArc
 50
61.58813550518613
 51
119.9999999999888
  0
ARC
  5
C7C
330
1F
100
AcDbEntity
  8
0
  6
Continuous
 62
     7
370
    15
100
AcDbCircle
 10
0.6131888733502563
 20
-0.3429845549064216
 30
0.0
 40
0.0110603932584376
100
AcDbArc
 50
241.5881355051861
 51
358.411864494753
  0
ARC
  5
C7D
330
1F
100
AcDbEntity
  8
0
  6
Continuous
 62
     7
370
    15
100
AcDbCircle
 10
0.6131888733502563
 20
-0.3429845549064216
 30
0.0
 40
0.0110603932584398
100
AcDbArc
 50
120.0000000000208
 51
178.411864494785
  0
LINE
  5
CDE
330
1F
100
AcDbEntity
  8
0
  6
Continuous
 62
     7
370
    15
100
AcDbLine
 10
0.1410171357101361
 20
-0.3611954521239448
 30
0.0
 11
0.1468106632322232
 21
-0.3511607443827751
 31
0.0
  0
LINE
  5
CDF
330
1F
100
AcDbEntity
  8
0
  6
Continuous
 62
     7
370
    15
100
AcDbLine
 10
0.5874859646685621
 20
-0.3511343394455303
 30
0.0
 11
0.5932978256418294
 21
-0.3611584520843313
 31
0.0
  0
LINE
  5
CE0
330
1F
100
AcDbEntity
  8
0
  6
Continuous
 62
     7
370
    15
100
AcDbLine
 10
0.3729189835706532
 20
-0.742845411406879
 30
0.0
 11
0.3613319049189232
 21
-0.742845411406879
 31
0.0
  0
LINE
  5
CE5
330
1F
100
AcDbEntity
  8
0
  6
Continuous
 62
     7
370
    15
100
AcDbLine
 10
0.6132231862963546
 20
-0.342964744317755
 30
0.0
 11
0.5057445031605303
 21
-0.4050175909583361
 31
0.0
  0
LINE
  5
CE6
330
1F
100
AcDbEntity
  8
0
  6
Continuous
 62
     7
370
    15
100
AcDbLine
 10
0.1211077498322126
 20
-0.3430109598436664
 30
0.0
 11
0.2285063853290732
 21
-0.4050175909583369
 31
0.0
  0
LINE
  5
CE7
330
1F
100
AcDbEntity
  8
0
  6
Continuous
 62
     7
370
    15
100
AcDbLine
 10
0.367125444244802
 20
-0.7691796810696889
 30
0.0
 11
0.367125444244802
 21
-0.6451128438978435
 31
0.0
  0
LINE
  5
E0C
330
1F
100
AcDbEntity
  8
0
  6
Continuous
 62
     7
370
    15
100
AcDbLine
 10
0.5060420570862453
 20
0.6602190500333684
 30
0.0
 11
0.6522194914420196
 21
0.0905858026517007
 31
0.0
  0
LINE
  5
E0F
330
1F
100
AcDbEntity
  8
0
  6
Continuous
 62
     7
370
    15
100
AcDbLine
 10
0.2282344825971285
 20
0.6602190500333684
 30
0.0
 11
0.081658084304559
 21
0.0905858026517007
 31
0.0
  0
LINE
  5
F54
330
1F
100
AcDbEntity
  8
S&C_cotas
 62
   252
370
    -2
100
AcDbLine
 10
0.1846247022500291
 20
0.7121281155490281
 30
0.0
 11
-0.3511977873369376
 21
0.7121281155490281
 31
0.0
  0
LINE
  5
F55
330
1F
100
AcDbEntity
  8
S&C_cotas
 62
   252
370
    -2
100
AcDbLine
 10
0.1858731657516763
 20
0.6565106033681101
 30
0.0
 11
0.1646413874907404
 21
0.6565106033681101
 31
0.0
  0
MTEXT
  5
F56
330
1F
100
AcDbEntity
  8
S&C_cotas
 62
   252
100
AcDbMText
 10
0.14338308878527
 20
0.645725057117572
 30
0.0
 40
0.015
 41
0.0
 71
     5
 72
     1
  1
5 cm / 2"
  7
ARIAL
 11
6.123031769111885E-17
 21
1.0
 31
0.0
 73
     1
 44
1.0
  0
LINE
  5
F66
330
1F
100
AcDbEntity
  8
S&C_cotas
  6
Continuous
370
    -2
100
AcDbLine
 10
0.5272866287818125
 20
0.7459691158848042
 30
0.0
 11
0.5272866287818125
 21
0.8031190184812543
 31
0.0
  0
LINE
  5
F67
330
1F
100
AcDbEntity
  8
S&C_cotas
  6
Continuous
370
    -2
100
AcDbLine
 10
0.203328662206233
 20
0.7459691158848042
 30
0.0
 11
0.203328662206233
 21
0.8031190184812543
 31
0.0
  0
MTEXT
  5
F68
330
1F
100
AcDbEntity
  8
S&C_cotas
  6
Continuous
 62
   252
100
AcDbMText
 10
0.3607857985473117
 20
0.77686732982012
 30
0.0
 40
0.02
 41
0.0
 71
     5
 72
     1
  1
%%c32 cm / 12.6"
  7
ARIAL
 73
     1
 44
1.0
  0
LINE
  5
FFD
330
1F
100
AcDbEntity
  8
S&C_cotas
  6
Continuous
370
    -2
100
AcDbLine
 10
-0.1093181521952994
 20
0.080598022459837
 30
0.0
 11
-0.2273022027056086
 21
0.080598022459837
 31
0.0
  0
LINE
  5
FFE
330
1F
100
AcDbEntity
  8
S&C_cotas
  6
Continuous
370
    -2
100
AcDbLine
 10
-0.1106786687664788
 20
0.0040046664315555
 30
0.0
 11
-0.3498929011456503
 21
0.0040046664315556
 31
0.0
  0
MTEXT
  5
FFF
330
1F
100
AcDbEntity
  8
S&C_cotas
  6
Continuous
100
AcDbMText
 10
-0.25286692904064
 20
0.0705191126464262
 30
0.0
 40
0.015
 41
0.0
 71
     5
 72
     1
  1
8 cm / 3.1"
  7
ARIAL
 11
6.123031769111885E-17
 21
1.0
 31
0.0
 73
     1
 44
1.0
  0
LINE
  5
1639
330
1F
100
AcDbEntity
  8
0
  6
Continuous
 62
     7
370
    15
100
AcDbLine
 10
0.2469361429494729
 20
0.6566190505608678
 30
0.0
 11
0.2469361429494729
 21
0.6602190500333684
 31
0.0
  0
LINE
  5
163A
330
1F
100
AcDbEntity
  8
0
  6
Continuous
 62
     7
370
    15
100
AcDbLine
 10
0.2399361453848327
 20
0.6602190500333684
 30
0.0
 11
0.2399361453848327
 21
0.6566190505608678
 31
0.0
  0
LINE
  5
163B
330
1F
100
AcDbEntity
  8
0
  6
Continuous
 62
     7
370
    15
100
AcDbLine
 10
0.4937533902818675
 20
0.6566190505608678
 30
0.0
 11
0.4937533902818675
 21
0.6602190500333684
 31
0.0
  0
LINE
  5
163C
330
1F
100
AcDbEntity
  8
0
  6
Continuous
 62
     7
370
    15
100
AcDbLine
 10
0.4867533908956568
 20
0.6602190500333684
 30
0.0
 11
0.4867533908956568
 21
0.6566190505608678
 31
0.0
  0
LINE
  5
163D
330
1F
100
AcDbEntity
  8
0
  6
Continuous
 62
     7
370
    15
100
AcDbLine
 10
0.3703447644816998
 20
0.6566190505608678
 30
0.0
 11
0.3703447644816998
 21
0.6602190500333684
 31
0.0
  0
LINE
  5
163E
330
1F
100
AcDbEntity
  8
0
  6
Continuous
 62
     7
370
    15
100
AcDbLine
 10
0.3633447680509579
 20
0.6602190500333684
 30
0.0
 11
0.3633447680509579
 21
0.6566190505608678
 31
0.0
  0
LINE
  5
163F
330
1F
100
AcDbEntity
  8
0
  6
Continuous
 62
     7
370
    15
100
AcDbLine
 10
0.4922533903987659
 20
0.7134690499141574
 30
0.0
 11
0.4915033904572116
 21
0.7142190495714271
 31
0.0
  0
LINE
  5
1640
330
1F
100
AcDbEntity
  8
0
  6
Continuous
 62
     7
370
    15
100
AcDbLine
 10
0.4890033846045311
 20
0.7142190495714271
 30
0.0
 11
0.4882533937342334
 21
0.7134690499141574
 31
0.0
  0
LINE
  5
1641
330
1F
100
AcDbEntity
  8
0
  6
Continuous
 62
     7
370
    15
100
AcDbLine
 10
0.4922533903987659
 20
0.7134190509304184
 30
0.0
 11
0.4922533903987659
 21
0.7134690499141574
 31
0.0
  0
LINE
  5
1642
330
1F
100
AcDbEntity
  8
0
  6
Continuous
 62
     7
370
    15
100
AcDbLine
 10
0.4882533937342334
 20
0.7134690499141574
 30
0.0
 11
0.4882533937342334
 21
0.7134190509304184
 31
0.0
  0
LINE
  5
1643
330
1F
100
AcDbEntity
  8
0
  6
Continuous
 62
     7
370
    15
100
AcDbLine
 10
0.3688447645985921
 20
0.7134690499141574
 30
0.0
 11
0.3680947676125118
 21
0.7142190495714271
 31
0.0
  0
LINE
  5
1644
330
1F
100
AcDbEntity
  8
0
  6
Continuous
 62
     7
370
    15
100
AcDbLine
 10
0.3655947708310879
 20
0.7142190495714271
 30
0.0
 11
0.3648447679340666
 21
0.7134690499141574
 31
0.0
  0
LINE
  5
1645
330
1F
100
AcDbEntity
  8
0
  6
Continuous
 62
     7
370
    15
100
AcDbLine
 10
0.3688447645985921
 20
0.7134190509304184
 30
0.0
 11
0.3688447645985921
 21
0.7134690499141574
 31
0.0
  0
LINE
  5
1646
330
1F
100
AcDbEntity
  8
0
  6
Continuous
 62
     7
370
    15
100
AcDbLine
 10
0.3648447679340666
 20
0.7134690499141574
 30
0.0
 11
0.3648447679340666
 21
0.7134190509304184
 31
0.0
  0
LINE
  5
1647
330
1F
100
AcDbEntity
  8
0
  6
Continuous
 62
     7
370
    15
100
AcDbLine
 10
0.2454361489773124
 20
0.7134690499141574
 30
0.0
 11
0.244686146080291
 21
0.7142190495714271
 31
0.0
  0
LINE
  5
1648
330
1F
100
AcDbEntity
  8
0
  6
Continuous
 62
     7
370
    15
100
AcDbLine
 10
0.2421861540759028
 20
0.7142190495714271
 30
0.0
 11
0.2414361511788744
 21
0.7134690499141574
 31
0.0
  0
LINE
  5
1649
330
1F
100
AcDbEntity
  8
0
  6
Continuous
 62
     7
370
    15
100
AcDbLine
 10
0.2454361489773124
 20
0.7134190509304184
 30
0.0
 11
0.2454361489773124
 21
0.7134690499141574
 31
0.0
  0
LINE
  5
164A
330
1F
100
AcDbEntity
  8
0
  6
Continuous
 62
     7
370
    15
100
AcDbLine
 10
0.2414361511788744
 20
0.7134690499141574
 30
0.0
 11
0.2414361511788744
 21
0.7134190509304184
 31
0.0
  0
LINE
  5
164B
330
1F
100
AcDbEntity
  8
0
  6
Continuous
 62
     7
370
    15
100
AcDbLine
 10
0.2394361517127018
 20
0.6722190501376784
 30
0.0
 11
0.2394361517127018
 21
0.6622190503611975
 31
0.0
  0
LINE
  5
164C
330
1F
100
AcDbEntity
  8
0
  6
Continuous
 62
     7
370
    15
100
AcDbLine
 10
0.247436148443484
 20
0.6622190503611975
 30
0.0
 11
0.247436148443484
 21
0.6722190501376784
 31
0.0
  0
LINE
  5
164D
330
1F
100
AcDbEntity
  8
0
  6
Continuous
 62
     7
370
    15
100
AcDbLine
 10
0.3628447696018003
 20
0.6842190502419883
 30
0.0
 11
0.3628447696018003
 21
0.6742190504654968
 31
0.0
  0
LINE
  5
164E
330
1F
100
AcDbEntity
  8
0
  6
Continuous
 62
     7
370
    15
100
AcDbLine
 10
0.3708447629308583
 20
0.6742190504654968
 30
0.0
 11
0.3708447629308583
 21
0.6842190502419883
 31
0.0
  0
LINE
  5
164F
330
1F
100
AcDbEntity
  8
0
  6
Continuous
 62
     7
370
    15
100
AcDbLine
 10
0.4862533879108714
 20
0.6722190501376784
 30
0.0
 11
0.4862533879108714
 21
0.6647190498396569
 31
0.0
  0
LINE
  5
1650
330
1F
100
AcDbEntity
  8
0
  6
Continuous
 62
     7
370
    15
100
AcDbLine
 10
0.4942533871508704
 20
0.6647190498396569
 30
0.0
 11
0.4942533871508704
 21
0.6722190501376784
 31
0.0
  0
LINE
  5
1651
330
1F
100
AcDbEntity
  8
0
  6
Continuous
 62
     7
370
    15
100
AcDbLine
 10
0.3628447696018003
 20
0.6722190501376784
 30
0.0
 11
0.3628447696018003
 21
0.6622190503611975
 31
0.0
  0
LINE
  5
1652
330
1F
100
AcDbEntity
  8
0
  6
Continuous
 62
     7
370
    15
100
AcDbLine
 10
0.3708447629308583
 20
0.6622190503611975
 30
0.0
 11
0.3708447629308583
 21
0.6722190501376784
 31
0.0
  0
LINE
  5
1653
330
1F
100
AcDbEntity
  8
0
  6
Continuous
 62
     7
370
    15
100
AcDbLine
 10
0.4862533879108714
 20
0.6842190502419883
 30
0.0
 11
0.4862533879108714
 21
0.6767190499439579
 31
0.0
  0
LINE
  5
1654
330
1F
100
AcDbEntity
  8
0
  6
Continuous
 62
     7
370
    15
100
AcDbLine
 10
0.4942533871508704
 20
0.6767190499439579
 30
0.0
 11
0.4942533871508704
 21
0.6842190502419883
 31
0.0
  0
LINE
  5
1655
330
1F
100
AcDbEntity
  8
0
  6
Continuous
 62
     7
370
    15
100
AcDbLine
 10
0.2394361517127018
 20
0.6842190502419883
 30
0.0
 11
0.2394361517127018
 21
0.6742190504654968
 31
0.0
  0
LINE
  5
1656
330
1F
100
AcDbEntity
  8
0
  6
Continuous
 62
     7
370
    15
100
AcDbLine
 10
0.247436148443484
 20
0.6742190504654968
 30
0.0
 11
0.247436148443484
 21
0.6842190502419883
 31
0.0
  0
LINE
  5
1657
330
1F
100
AcDbEntity
  8
0
  6
Continuous
 62
     7
370
    15
100
AcDbLine
 10
0.3708447629308583
 20
0.6862190503369778
 30
0.0
 11
0.3708447629308583
 21
0.6962190503462982
 31
0.0
  0
LINE
  5
1658
330
1F
100
AcDbEntity
  8
0
  6
Continuous
 62
     7
370
    15
100
AcDbLine
 10
0.3628447696018003
 20
0.6962190503462982
 30
0.0
 11
0.3628447696018003
 21
0.6862190503369778
 31
0.0
  0
LINE
  5
1659
330
1F
100
AcDbEntity
  8
0
  6
Continuous
 62
     7
370
    15
100
AcDbLine
 10
0.3708447629308583
 20
0.6982190506741184
 30
0.0
 11
0.3708447629308583
 21
0.7082190504505974
 31
0.0
  0
LINE
  5
165A
330
1F
100
AcDbEntity
  8
0
  6
Continuous
 62
     7
370
    15
100
AcDbLine
 10
0.3628447696018003
 20
0.7082190504505974
 30
0.0
 11
0.3628447696018003
 21
0.6982190506741184
 31
0.0
  0
LINE
  5
165B
330
1F
100
AcDbEntity
  8
0
  6
Continuous
 62
     7
370
    15
100
AcDbLine
 10
0.4942533871508704
 20
0.6982190506741184
 30
0.0
 11
0.4942533871508704
 21
0.7082190504505974
 31
0.0
  0
LINE
  5
165C
330
1F
100
AcDbEntity
  8
0
  6
Continuous
 62
     7
370
    15
100
AcDbLine
 10
0.4862533879108714
 20
0.7082190504505974
 30
0.0
 11
0.4862533879108714
 21
0.6982190506741184
 31
0.0
  0
LINE
  5
165D
330
1F
100
AcDbEntity
  8
0
  6
Continuous
 62
     7
370
    15
100
AcDbLine
 10
0.247436148443484
 20
0.6862190503369778
 30
0.0
 11
0.247436148443484
 21
0.6962190503462982
 31
0.0
  0
LINE
  5
165E
330
1F
100
AcDbEntity
  8
0
  6
Continuous
 62
     7
370
    15
100
AcDbLine
 10
0.2394361517127018
 20
0.6962190503462982
 30
0.0
 11
0.2394361517127018
 21
0.6862190503369778
 31
0.0
  0
LINE
  5
165F
330
1F
100
AcDbEntity
  8
0
  6
Continuous
 62
     7
370
    15
100
AcDbLine
 10
0.4942533871508704
 20
0.6862190503369778
 30
0.0
 11
0.4942533871508704
 21
0.6962190503462982
 31
0.0
  0
LINE
  5
1660
330
1F
100
AcDbEntity
  8
0
  6
Continuous
 62
     7
370
    15
100
AcDbLine
 10
0.4862533879108714
 20
0.6962190503462982
 30
0.0
 11
0.4862533879108714
 21
0.6862190503369778
 31
0.0
  0
LINE
  5
1661
330
1F
100
AcDbEntity
  8
0
  6
Continuous
 62
     7
370
    15
100
AcDbLine
 10
0.247436148443484
 20
0.6982190506741184
 30
0.0
 11
0.247436148443484
 21
0.7082190504505974
 31
0.0
  0
LINE
  5
1662
330
1F
100
AcDbEntity
  8
0
  6
Continuous
 62
     7
370
    15
100
AcDbLine
 10
0.2394361517127018
 20
0.7082190504505974
 30
0.0
 11
0.2394361517127018
 21
0.6982190506741184
 31
0.0
  0
LINE
  5
1665
330
1F
100
AcDbEntity
  8
0
  6
Continuous
 62
     7
370
    15
100
AcDbLine
 10
0.2068447637783221
 20
0.6622190503611975
 30
0.0
 11
0.2068447637783221
 21
0.6602190500333684
 31
0.0
  0
LINE
  5
1666
330
1F
100
AcDbEntity
  8
0
  6
Continuous
 62
     7
370
    15
100
AcDbLine
 10
0.5268447653911895
 20
0.6602190500333684
 30
0.0
 11
0.5268447653911895
 21
0.6622190503611975
 31
0.0
  0
LINE
  5
1667
330
1F
100
AcDbEntity
  8
0
  6
Continuous
 62
     7
370
    15
100
AcDbLine
 10
0.5268447653911895
 20
0.6722190501376784
 30
0.0
 11
0.5268447653911895
 21
0.6742190504654968
 31
0.0
  0
LINE
  5
1668
330
1F
100
AcDbEntity
  8
0
  6
Continuous
 62
     7
370
    15
100
AcDbLine
 10
0.2068447637783221
 20
0.6742190504654968
 30
0.0
 11
0.2068447637783221
 21
0.6722190501376784
 31
0.0
  0
LINE
  5
1669
330
1F
100
AcDbEntity
  8
0
  6
Continuous
 62
     7
370
    15
100
AcDbLine
 10
0.5268447653911895
 20
0.6842190502419883
 30
0.0
 11
0.5268447653911895
 21
0.6862190503369778
 31
0.0
  0
LINE
  5
166A
330
1F
100
AcDbEntity
  8
0
  6
Continuous
 62
     7
370
    15
100
AcDbLine
 10
0.2068447637783221
 20
0.6862190503369778
 30
0.0
 11
0.2068447637783221
 21
0.6842190502419883
 31
0.0
  0
LINE
  5
166B
330
1F
100
AcDbEntity
  8
0
  6
Continuous
 62
     7
370
    15
100
AcDbLine
 10
0.5268447653911895
 20
0.6962190503462982
 30
0.0
 11
0.5268447653911895
 21
0.6982190506741184
 31
0.0
  0
LINE
  5
166C
330
1F
100
AcDbEntity
  8
0
  6
Continuous
 62
     7
370
    15
100
AcDbLine
 10
0.2068447637783221
 20
0.6982190506741184
 30
0.0
 11
0.2068447637783221
 21
0.6962190503462982
 31
0.0
  0
LINE
  5
166D
330
1F
100
AcDbEntity
  8
0
  6
Continuous
 62
     7
370
    15
100
AcDbLine
 10
0.5268447653911895
 20
0.7082190504505974
 30
0.0
 11
0.5268447653911895
 21
0.7102190507784283
 31
0.0
  0
LINE
  5
166E
330
1F
100
AcDbEntity
  8
0
  6
Continuous
 62
     7
370
    15
100
AcDbLine
 10
0.2068447637783221
 20
0.7102190507784283
 30
0.0
 11
0.2068447637783221
 21
0.7082190504505974
 31
0.0
  0
SPLINE
  5
166F
330
1F
100
AcDbEntity
  8
0
  6
Continuous
 62
     7
370
    15
100
AcDbSpline
210
0.0
220
0.0
230
1.0
 70
     8
 71
     3
 72
     9
 73
     5
 74
     0
 42
0.0000000001
 43
0.0000000001
 40
0.0
 40
0.0
 40
0.0
 40
0.0
 40
0.722428784349588
 40
1.0
 40
1.0
 40
1.0
 40
1.0
 10
0.2429086270450046
 20
0.7129190499171376
 30
0.0
 10
0.2432275874260273
 20
0.7130773541840381
 30
0.0
 10
0.2436690986004496
 20
0.7132964820348768
 30
0.0
 10
0.2441444620719796
 20
0.7133924210275879
 30
0.0
 10
0.2442764092886452
 20
0.7134190509304184
 30
0.0
  0
LINE
  5
1670
330
1F
100
AcDbEntity
  8
0
  6
Continuous
 62
     7
370
    15
100
AcDbLine
 10
0.2452746766805513
 20
0.7134190509304184
 30
0.0
 11
0.2442764092886452
 21
0.7134190509304184
 31
0.0
  0
SPLINE
  5
1671
330
1F
100
AcDbEntity
  8
0
  6
Continuous
 62
     7
370
    15
100
AcDbSpline
210
0.0
220
0.0
230
1.0
 70
     8
 71
     3
 72
     9
 73
     5
 74
     0
 42
0.0000000001
 43
0.0000000001
 40
0.0
 40
0.0
 40
0.0
 40
0.0
 40
0.619499034677589
 40
1.0
 40
1.0
 40
1.0
 40
1.0
 10
0.2452746766805513
 20
0.7134190509304184
 30
0.0
 10
0.2455676427179648
 20
0.7133476123429567
 30
0.0
 10
0.2460405506984745
 20
0.7132322956378971
 30
0.0
 10
0.2464765484159986
 20
0.7130053883566767
 30
0.0
 10
0.2466424459683972
 20
0.7129190499171376
 30
0.0
  0
LINE
  5
1672
330
1F
100
AcDbEntity
  8
0
  6
Continuous
 62
     7
370
    15
100
AcDbLine
 10
0.2466424459683972
 20
0.7129190499171376
 30
0.0
 11
0.2466424459683972
 21
0.7107190499290568
 31
0.0
  0
SPLINE
  5
1673
330
1F
100
AcDbEntity
  8
0
  6
Continuous
 62
     7
370
    15
100
AcDbSpline
210
0.0
220
0.0
230
1.0
 70
     8
 71
     3
 72
     9
 73
     5
 74
     0
 42
0.0000000001
 43
0.0000000001
 40
0.0
 40
0.0
 40
0.0
 40
0.0
 40
0.7224274645631182
 40
1.0
 40
1.0
 40
1.0
 40
1.0
 10
0.2466424459683972
 20
0.7107190499290568
 30
0.0
 10
0.2463234906441091
 20
0.7105607449332567
 30
0.0
 10
0.2458819856627276
 20
0.7103416156731381
 30
0.0
 10
0.2454066240176335
 20
0.7102456799111281
 30
0.0
 10
0.2452746766805513
 20
0.7102190507784283
 30
0.0
  0
SPLINE
  5
1674
330
1F
100
AcDbEntity
  8
0
  6
Continuous
 62
     7
370
    15
100
AcDbSpline
210
0.0
220
0.0
230
1.0
 70
     8
 71
     3
 72
     9
 73
     5
 74
     0
 42
0.0000000001
 43
0.0000000001
 40
0.0
 40
0.0
 40
0.0
 40
0.0
 40
0.6195010372640956
 40
1.0
 40
1.0
 40
1.0
 40
1.0
 10
0.2442764092886452
 20
0.7102190507784283
 30
0.0
 10
0.2439834382980951
 20
0.7102904881597081
 30
0.0
 10
0.2435105238509289
 20
0.7104058025449576
 30
0.0
 10
0.2430745243882914
 20
0.7106327113602184
 30
0.0
 10
0.2429086270450046
 20
0.7107190499290568
 30
0.0
  0
LINE
  5
1675
330
1F
100
AcDbEntity
  8
0
  6
Continuous
 62
     7
370
    15
100
AcDbLine
 10
0.2429086270450046
 20
0.7129190499171376
 30
0.0
 11
0.2429086270450046
 21
0.7107190499290568
 31
0.0
  0
SPLINE
  5
1676
330
1F
100
AcDbEntity
  8
0
  6
Continuous
 62
     7
370
    15
100
AcDbSpline
210
0.0
220
0.0
230
1.0
 70
     8
 71
     3
 72
     9
 73
     5
 74
     0
 42
0.0000000001
 43
0.0000000001
 40
0.0
 40
0.0
 40
0.0
 40
0.0
 40
0.722423712857018
 40
1.0
 40
1.0
 40
1.0
 40
1.0
 10
0.2429086270450046
 20
0.7107190499290568
 30
0.0
 10
0.2426347352317743
 20
0.710560744520538
 30
0.0
 10
0.2422556061855449
 20
0.7103416135511378
 30
0.0
 10
0.2418474057795169
 20
0.7102456797318084
 30
0.0
 10
0.2417340990264026
 20
0.7102190507784283
 30
0.0
  0
SPLINE
  5
1677
330
1F
100
AcDbEntity
  8
0
  6
Continuous
 62
     7
370
    15
100
AcDbSpline
210
0.0
220
0.0
230
1.0
 70
     8
 71
     3
 72
     9
 73
     5
 74
     0
 42
0.0000000001
 43
0.0000000001
 40
0.0
 40
0.0
 40
0.0
 40
0.0
 40
0.619502726416432
 40
1.0
 40
1.0
 40
1.0
 40
1.0
 10
0.2417340990264026
 20
0.7134190509304184
 30
0.0
 10
0.2419856771097674
 20
0.7133476130674175
 30
0.0
 10
0.2423917739236087
 20
0.7132322982189969
 30
0.0
 10
0.2427661702598346
 20
0.713005388461297
 30
0.0
 10
0.2429086270450046
 20
0.7129190499171376
 30
0.0
  0
LINE
  5
1678
330
1F
100
AcDbEntity
  8
0
  6
Continuous
 62
     7
370
    15
100
AcDbLine
 10
0.2417340990264026
 20
0.7134190509304184
 30
0.0
 11
0.2442764092886452
 21
0.7134190509304184
 31
0.0
  0
SPLINE
  5
1679
330
1F
100
AcDbEntity
  8
0
  6
Continuous
 62
     7
370
    15
100
AcDbSpline
210
0.0
220
0.0
230
1.0
 70
     8
 71
     3
 72
     9
 73
     5
 74
     0
 42
0.0000000001
 43
0.0000000001
 40
0.0
 40
0.0
 40
0.0
 40
0.0
 40
0.7224259963541083
 40
1.0
 40
1.0
 40
1.0
 40
1.0
 10
0.2397023305877463
 20
0.7129190499171376
 30
0.0
 10
0.2399762265440305
 20
0.713077354490758
 30
0.0
 10
0.2403553601267919
 20
0.7132964836118376
 30
0.0
 10
0.2407635637220139
 20
0.7133924211608378
 30
0.0
 10
0.2408768704282384
 20
0.7134190509304184
 30
0.0
  0
LINE
  5
167A
330
1F
100
AcDbEntity
  8
0
  6
Continuous
 62
     7
370
    15
100
AcDbLine
 10
0.2417340990264026
 20
0.7134190509304184
 30
0.0
 11
0.2408768704282384
 21
0.7134190509304184
 31
0.0
  0
SPLINE
  5
167B
330
1F
100
AcDbEntity
  8
0
  6
Continuous
 62
     7
370
    15
100
AcDbSpline
210
0.0
220
0.0
230
1.0
 70
     8
 71
     3
 72
     9
 73
     5
 74
     0
 42
0.0000000001
 43
0.0000000001
 40
0.0
 40
0.0
 40
0.0
 40
0.0
 40
0.6194972259676698
 40
1.0
 40
1.0
 40
1.0
 40
1.0
 10
0.2408768704282384
 20
0.7102190507784283
 30
0.0
 10
0.2406252926737332
 20
0.7102904889076271
 30
0.0
 10
0.2402191927850484
 20
0.7104058052096278
 30
0.0
 10
0.2398447913662171
 20
0.7106327114682174
 30
0.0
 10
0.2397023305877463
 20
0.7107190499290568
 30
0.0
  0
LINE
  5
167C
330
1F
100
AcDbEntity
  8
0
  6
Continuous
 62
     7
370
    15
100
AcDbLine
 10
0.2397023305877463
 20
0.7129190499171376
 30
0.0
 11
0.2397023305877463
 21
0.7107190499290568
 31
0.0
  0
SPLINE
  5
167D
330
1F
100
AcDbEntity
  8
0
  6
Continuous
 62
     7
370
    15
100
AcDbSpline
210
0.0
220
0.0
230
1.0
 70
     8
 71
     3
 72
     9
 73
     5
 74
     0
 42
0.0000000001
 43
0.0000000001
 40
0.0
 40
0.0
 40
0.0
 40
0.0
 40
0.2756368004654677
 40
1.0
 40
1.0
 40
1.0
 40
1.0
 10
0.2468356883715476
 20
0.7102190507784283
 30
0.0
 10
0.2468171752738341
 20
0.7102454628469979
 30
0.0
 10
0.246750010447926
 20
0.7103412848436375
 30
0.0
 10
0.2466876312000043
 20
0.7105603599697681
 30
0.0
 10
0.2466424459683972
 20
0.7107190499290568
 30
0.0
  0
SPLINE
  5
167E
330
1F
100
AcDbEntity
  8
0
  6
Continuous
 62
     7
370
    15
100
AcDbSpline
210
0.0
220
0.0
230
1.0
 70
     8
 71
     3
 72
     9
 73
     5
 74
     0
 42
0.0000000001
 43
0.0000000001
 40
0.0
 40
0.0
 40
0.0
 40
0.0
 40
0.1268080832296495
 40
1.0
 40
1.0
 40
1.0
 40
1.0
 10
0.2466424459683972
 20
0.7129190499171376
 30
0.0
 10
0.2466501872493451
 20
0.7129483654521078
 30
0.0
 10
0.246711234469274
 20
0.7131795457855374
 30
0.0
 10
0.2467776739521529
 20
0.7133074051590171
 30
0.0
 10
0.2468356883715476
 20
0.7134190509304184
 30
0.0
  0
LINE
  5
167F
330
1F
100
AcDbEntity
  8
0
  6
Continuous
 62
     7
370
    15
100
AcDbLine
 10
0.2452746766805513
 20
0.7134190509304184
 30
0.0
 11
0.2468356883715476
 21
0.7134190509304184
 31
0.0
  0
SPLINE
  5
1680
330
1F
100
AcDbEntity
  8
0
  6
Continuous
 62
     7
370
    15
100
AcDbSpline
210
0.0
220
0.0
230
1.0
 70
     8
 71
     3
 72
     9
 73
     5
 74
     0
 42
0.0000000001
 43
0.0000000001
 40
0.0
 40
0.0
 40
0.0
 40
0.0
 40
0.2756401851644098
 40
1.0
 40
1.0
 40
1.0
 40
1.0
 10
0.2469767271652911
 20
0.7134190509304184
 30
0.0
 10
0.246995235749765
 20
0.7133926390546581
 30
0.0
 10
0.2470623833772553
 20
0.713296818934148
 30
0.0
 10
0.2471247681541578
 20
0.7130777410979772
 30
0.0
 10
0.2471699571796012
 20
0.7129190499171376
 30
0.0
  0
LINE
  5
1681
330
1F
100
AcDbEntity
  8
0
  6
Continuous
 62
     7
370
    15
100
AcDbLine
 10
0.2471699571796012
 20
0.7129190499171376
 30
0.0
 11
0.2471699571796012
 21
0.7107190499290568
 31
0.0
  0
SPLINE
  5
1682
330
1F
100
AcDbEntity
  8
0
  6
Continuous
 62
     7
370
    15
100
AcDbSpline
210
0.0
220
0.0
230
1.0
 70
     8
 71
     3
 72
     9
 73
     5
 74
     0
 42
0.0000000001
 43
0.0000000001
 40
0.0
 40
0.0
 40
0.0
 40
0.0
 40
0.1268071480121822
 40
1.0
 40
1.0
 40
1.0
 40
1.0
 10
0.2471699571796012
 20
0.7107190499290568
 30
0.0
 10
0.2471622160587182
 20
0.7106897343817373
 30
0.0
 10
0.247101169650826
 20
0.7104585522458777
 30
0.0
 10
0.2470347362959234
 20
0.710330694899427
 30
0.0
 10
0.2469767271652911
 20
0.7102190507784283
 30
0.0
  0
LINE
  5
1683
330
1F
100
AcDbEntity
  8
0
  6
Continuous
 62
     7
370
    15
100
AcDbLine
 10
0.2469767271652911
 20
0.7134190509304184
 30
0.0
 11
0.2468356883715476
 21
0.7134190509304184
 31
0.0
  0
SPLINE
  5
1684
330
1F
100
AcDbEntity
  8
0
  6
Continuous
 62
     7
370
    15
100
AcDbSpline
210
0.0
220
0.0
230
1.0
 70
     8
 71
     3
 72
     9
 73
     5
 74
     0
 42
0.0000000001
 43
0.0000000001
 40
0.0
 40
0.0
 40
0.0
 40
0.0
 40
0.1268038087271907
 40
1.0
 40
1.0
 40
1.0
 40
1.0
 10
0.2397023305877463
 20
0.7107190499290568
 30
0.0
 10
0.2397100761165593
 20
0.7106897343580283
 30
0.0
 10
0.2397711588938453
 20
0.7104585459471882
 30
0.0
 10
0.2398375769752125
 20
0.7103306921911969
 30
0.0
 10
0.2398955729909037
 20
0.7102190507784283
 30
0.0
  0
SPLINE
  5
1685
330
1F
100
AcDbEntity
  8
0
  6
Continuous
 62
     7
370
    15
100
AcDbSpline
210
0.0
220
0.0
230
1.0
 70
     8
 71
     3
 72
     9
 73
     5
 74
     0
 42
0.0000000001
 43
0.0000000001
 40
0.0
 40
0.0
 40
0.0
 40
0.0
 40
0.2756366816900334
 40
1.0
 40
1.0
 40
1.0
 40
1.0
 10
0.2398955729909037
 20
0.7134190509304184
 30
0.0
 10
0.2398770598918029
 20
0.7133926388887875
 30
0.0
 10
0.2398098950319326
 20
0.7132968169485772
 30
0.0
 10
0.2397475158088088
 20
0.7130777407090083
 30
0.0
 10
0.2397023305877463
 20
0.7129190499171376
 30
0.0
  0
LINE
  5
1686
330
1F
100
AcDbEntity
  8
0
  6
Continuous
 62
     7
370
    15
100
AcDbLine
 10
0.2398955729909037
 20
0.7134190509304184
 30
0.0
 11
0.2408768704282384
 21
0.7134190509304184
 31
0.0
  0
SPLINE
  5
1687
330
1F
100
AcDbEntity
  8
0
  6
Continuous
 62
     7
370
    15
100
AcDbSpline
210
0.0
220
0.0
230
1.0
 70
     8
 71
     3
 72
     9
 73
     5
 74
     0
 42
0.0000000001
 43
0.0000000001
 40
0.0
 40
0.0
 40
0.0
 40
0.0
 40
0.7224293582484628
 40
1.0
 40
1.0
 40
1.0
 40
1.0
 10
0.3631109532538804
 20
0.7129190499171376
 30
0.0
 10
0.3633848492648543
 20
0.7130773541208975
 30
0.0
 10
0.3637639811590047
 20
0.7132964817102672
 30
0.0
 10
0.3641721824806229
 20
0.7133924210001574
 30
0.0
 10
0.3642854871834235
 20
0.7134190509304184
 30
0.0
  0
LINE
  5
1688
330
1F
100
AcDbEntity
  8
0
  6
Continuous
 62
     7
370
    15
100
AcDbLine
 10
0.3651427216925359
 20
0.7134190509304184
 30
0.0
 11
0.3642854871834235
 21
0.7134190509304184
 31
0.0
  0
SPLINE
  5
1689
330
1F
100
AcDbEntity
  8
0
  6
Continuous
 62
     7
370
    15
100
AcDbSpline
210
0.0
220
0.0
230
1.0
 70
     8
 71
     3
 72
     9
 73
     5
 74
     0
 42
0.0000000001
 43
0.0000000001
 40
0.0
 40
0.0
 40
0.0
 40
0.0
 40
0.619502726416432
 40
1.0
 40
1.0
 40
1.0
 40
1.0
 10
0.3651427216925359
 20
0.7134190509304184
 30
0.0
 10
0.3653942997758935
 20
0.7133476130674175
 30
0.0
 10
0.3658003965897411
 20
0.7132322982189969
 30
0.0
 10
0.3661747929259617
 20
0.713005388461297
 30
0.0
 10
0.3663172497111379
 20
0.7129190499171376
 30
0.0
  0
LINE
  5
168A
330
1F
100
AcDbEntity
  8
0
  6
Continuous
 62
     7
370
    15
100
AcDbLine
 10
0.3663172497111379
 20
0.7129190499171376
 30
0.0
 11
0.3663172497111379
 21
0.7107190499290568
 31
0.0
  0
SPLINE
  5
168B
330
1F
100
AcDbEntity
  8
0
  6
Continuous
 62
     7
370
    15
100
AcDbSpline
210
0.0
220
0.0
230
1.0
 70
     8
 71
     3
 72
     9
 73
     5
 74
     0
 42
0.0000000001
 43
0.0000000001
 40
0.0
 40
0.0
 40
0.0
 40
0.0
 40
0.7224283047642659
 40
1.0
 40
1.0
 40
1.0
 40
1.0
 10
0.3663172497111379
 20
0.7107190499290568
 30
0.0
 10
0.3660433558188746
 20
0.7105607450256877
 30
0.0
 10
0.365664226304624
 20
0.7103416161483669
 30
0.0
 10
0.365256026425094
 20
0.710245679951288
 30
0.0
 10
0.3651427216925359
 20
0.7102190507784283
 30
0.0
  0
SPLINE
  5
168C
330
1F
100
AcDbEntity
  8
0
  6
Continuous
 62
     7
370
    15
100
AcDbSpline
210
0.0
220
0.0
230
1.0
 70
     8
 71
     3
 72
     9
 73
     5
 74
     0
 42
0.0000000001
 43
0.0000000001
 40
0.0
 40
0.0
 40
0.0
 40
0.0
 40
0.6194999162696643
 40
1.0
 40
1.0
 40
1.0
 40
1.0
 10
0.3642854871834235
 20
0.7102190507784283
 30
0.0
 10
0.3640339092464305
 20
0.7102904883796868
 30
0.0
 10
0.3636278108267422
 20
0.7104058033287075
 30
0.0
 10
0.3632534120281082
 20
0.7106327113919868
 30
0.0
 10
0.3631109532538804
 20
0.7107190499290568
 30
0.0
  0
LINE
  5
168D
330
1F
100
AcDbEntity
  8
0
  6
Continuous
 62
     7
370
    15
100
AcDbLine
 10
0.3631109532538804
 20
0.7129190499171376
 30
0.0
 11
0.3631109532538804
 21
0.7107190499290568
 31
0.0
  0
SPLINE
  5
168E
330
1F
100
AcDbEntity
  8
0
  6
Continuous
 62
     7
370
    15
100
AcDbSpline
210
0.0
220
0.0
230
1.0
 70
     8
 71
     3
 72
     9
 73
     5
 74
     0
 42
0.0000000001
 43
0.0000000001
 40
0.0
 40
0.0
 40
0.0
 40
0.0
 40
0.2756380206597476
 40
1.0
 40
1.0
 40
1.0
 40
1.0
 10
0.3676850237760195
 20
0.7102190507784283
 30
0.0
 10
0.367553993620476
 20
0.7102454627892272
 30
0.0
 10
0.3670786232226181
 20
0.7103412841521071
 30
0.0
 10
0.3666370839631122
 20
0.7105603598342871
 30
0.0
 10
0.3663172497111379
 20
0.7107190499290568
 30
0.0
  0
SPLINE
  5
168F
330
1F
100
AcDbEntity
  8
0
  6
Continuous
 62
     7
370
    15
100
AcDbSpline
210
0.0
220
0.0
230
1.0
 70
     8
 71
     3
 72
     9
 73
     5
 74
     0
 42
0.0000000001
 43
0.0000000001
 40
0.0
 40
0.0
 40
0.0
 40
0.0
 40
0.1268099154015514
 40
1.0
 40
1.0
 40
1.0
 40
1.0
 10
0.3663172497111379
 20
0.7129190499171376
 30
0.0
 10
0.3663720572589501
 20
0.7129483654390871
 30
0.0
 10
0.3668042596434521
 20
0.7131795423297984
 30
0.0
 10
0.3672744543875991
 20
0.7133074036731781
 30
0.0
 10
0.3676850237760195
 20
0.7134190509304184
 30
0.0
  0
LINE
  5
1690
330
1F
100
AcDbEntity
  8
0
  6
Continuous
 62
     7
370
    15
100
AcDbLine
 10
0.3651427216925359
 20
0.7134190509304184
 30
0.0
 11
0.3676850237760195
 21
0.7134190509304184
 31
0.0
  0
SPLINE
  5
1691
330
1F
100
AcDbEntity
  8
0
  6
Continuous
 62
     7
370
    15
100
AcDbSpline
210
0.0
220
0.0
230
1.0
 70
     8
 71
     3
 72
     9
 73
     5
 74
     0
 42
0.0000000001
 43
0.0000000001
 40
0.0
 40
0.0
 40
0.0
 40
0.0
 40
0.275637901883673
 40
1.0
 40
1.0
 40
1.0
 40
1.0
 10
0.3686832945696429
 20
0.7134190509304184
 30
0.0
 10
0.3688143247349845
 20
0.7133926389465579
 30
0.0
 10
0.369289695373212
 20
0.7132968176401182
 30
0.0
 10
0.3697312344572262
 20
0.7130777408444768
 30
0.0
 10
0.3700510686345314
 20
0.7129190499171376
 30
0.0
  0
LINE
  5
1692
330
1F
100
AcDbEntity
  8
0
  6
Continuous
 62
     7
370
    15
100
AcDbLine
 10
0.3700510686345314
 20
0.7129190499171376
 30
0.0
 11
0.3700510686345314
 21
0.7107190499290568
 31
0.0
  0
SPLINE
  5
1693
330
1F
100
AcDbEntity
  8
0
  6
Continuous
 62
     7
370
    15
100
AcDbSpline
210
0.0
220
0.0
230
1.0
 70
     8
 71
     3
 72
     9
 73
     5
 74
     0
 42
0.0000000001
 43
0.0000000001
 40
0.0
 40
0.0
 40
0.0
 40
0.0
 40
0.1268062196918126
 40
1.0
 40
1.0
 40
1.0
 40
1.0
 10
0.3700510686345314
 20
0.7107190499290568
 30
0.0
 10
0.3699962625792214
 20
0.710689734375147
 30
0.0
 10
0.3695640593683939
 20
0.7104585504948784
 30
0.0
 10
0.3690938651962771
 20
0.7103306941465484
 30
0.0
 10
0.3686832945696429
 20
0.7102190507784283
 30
0.0
  0
LINE
  5
1694
330
1F
100
AcDbEntity
  8
0
  6
Continuous
 62
     7
370
    15
100
AcDbLine
 10
0.3686832945696429
 20
0.7134190509304184
 30
0.0
 11
0.3676850237760195
 21
0.7134190509304184
 31
0.0
  0
SPLINE
  5
1695
330
1F
100
AcDbEntity
  8
0
  6
Continuous
 62
     7
370
    15
100
AcDbSpline
210
0.0
220
0.0
230
1.0
 70
     8
 71
     3
 72
     9
 73
     5
 74
     0
 42
0.0000000001
 43
0.0000000001
 40
0.0
 40
0.0
 40
0.0
 40
0.0
 40
0.7224267136179763
 40
1.0
 40
1.0
 40
1.0
 40
1.0
 10
0.3700510686345314
 20
0.7129190499171376
 30
0.0
 10
0.3700961313395089
 20
0.7130773544118469
 30
0.0
 10
0.3701585081925959
 20
0.7132964832061373
 30
0.0
 10
0.3702256661418634
 20
0.7133924211265577
 30
0.0
 10
0.3702443073945506
 20
0.7134190509304184
 30
0.0
  0
LINE
  5
1696
330
1F
100
AcDbEntity
  8
0
  6
Continuous
 62
     7
370
    15
100
AcDbLine
 10
0.3686832945696429
 20
0.7134190509304184
 30
0.0
 11
0.3702443073945506
 21
0.7134190509304184
 31
0.0
  0
SPLINE
  5
1697
330
1F
100
AcDbEntity
  8
0
  6
Continuous
 62
     7
370
    15
100
AcDbSpline
210
0.0
220
0.0
230
1.0
 70
     8
 71
     3
 72
     9
 73
     5
 74
     0
 42
0.0000000001
 43
0.0000000001
 40
0.0
 40
0.0
 40
0.0
 40
0.0
 40
0.6195009203898889
 40
1.0
 40
1.0
 40
1.0
 40
1.0
 10
0.3702443073945506
 20
0.7102190507784283
 30
0.0
 10
0.3702029145940745
 20
0.7102904881826373
 30
0.0
 10
0.3701360982276899
 20
0.7104058026266771
 30
0.0
 10
0.3700745048558293
 20
0.7106327113635278
 30
0.0
 10
0.3700510686345314
 20
0.7107190499290568
 30
0.0
  0
SPLINE
  5
1698
330
1F
100
AcDbEntity
  8
0
  6
Continuous
 62
     7
370
    15
100
AcDbSpline
210
0.0
220
0.0
230
1.0
 70
     8
 71
     3
 72
     9
 73
     5
 74
     0
 42
0.0000000001
 43
0.0000000001
 40
0.0
 40
0.0
 40
0.0
 40
0.0
 40
0.7224314825682464
 40
1.0
 40
1.0
 40
1.0
 40
1.0
 10
0.3631109532538804
 20
0.7107190499290568
 30
0.0
 10
0.363156015108331
 20
0.7105607453752978
 30
0.0
 10
0.3632183903723319
 20
0.7103416179457984
 30
0.0
 10
0.3632855515583774
 20
0.7102456801031682
 30
0.0
 10
0.363304193389219
 20
0.7102190507784283
 30
0.0
  0
SPLINE
  5
1699
330
1F
100
AcDbEntity
  8
0
  6
Continuous
 62
     7
370
    15
100
AcDbSpline
210
0.0
220
0.0
230
1.0
 70
     8
 71
     3
 72
     9
 73
     5
 74
     0
 42
0.0000000001
 43
0.0000000001
 40
0.0
 40
0.0
 40
0.0
 40
0.0
 40
0.6195008744425655
 40
1.0
 40
1.0
 40
1.0
 40
1.0
 10
0.363304193389219
 20
0.7134190509304184
 30
0.0
 10
0.3632628035602966
 20
0.713347612703987
 30
0.0
 10
0.3631959919856497
 20
0.7132322969241784
 30
0.0
 10
0.363134391996056
 20
0.7130053884088181
 30
0.0
 10
0.3631109532538804
 20
0.7129190499171376
 30
0.0
  0
LINE
  5
169A
330
1F
100
AcDbEntity
  8
0
  6
Continuous
 62
     7
370
    15
100
AcDbLine
 10
0.363304193389219
 20
0.7134190509304184
 30
0.0
 11
0.3642854871834235
 21
0.7134190509304184
 31
0.0
  0
SPLINE
  5
169B
330
1F
100
AcDbEntity
  8
0
  6
Continuous
 62
     7
370
    15
100
AcDbSpline
210
0.0
220
0.0
230
1.0
 70
     8
 71
     3
 72
     9
 73
     5
 74
     0
 42
0.0000000001
 43
0.0000000001
 40
0.0
 40
0.0
 40
0.0
 40
0.0
 40
0.6194995292804508
 40
1.0
 40
1.0
 40
1.0
 40
1.0
 10
0.3703853450543798
 20
0.7134190509304184
 30
0.0
 10
0.3704267359436816
 20
0.7133476124400169
 30
0.0
 10
0.37049354937507
 20
0.713232295983697
 30
0.0
 10
0.3705551429098154
 20
0.7130053883706975
 30
0.0
 10
0.3705785792787782
 20
0.7129190499171376
 30
0.0
  0
LINE
  5
169C
330
1F
100
AcDbEntity
  8
0
  6
Continuous
 62
     7
370
    15
100
AcDbLine
 10
0.3705785792787782
 20
0.7129190499171376
 30
0.0
 11
0.3705785792787782
 21
0.7107190499290568
 31
0.0
  0
SPLINE
  5
169D
330
1F
100
AcDbEntity
  8
0
  6
Continuous
 62
     7
370
    15
100
AcDbSpline
210
0.0
220
0.0
230
1.0
 70
     8
 71
     3
 72
     9
 73
     5
 74
     0
 42
0.0000000001
 43
0.0000000001
 40
0.0
 40
0.0
 40
0.0
 40
0.0
 40
0.7224298015945488
 40
1.0
 40
1.0
 40
1.0
 40
1.0
 10
0.3705785792787782
 20
0.7107190499290568
 30
0.0
 10
0.370533515424086
 20
0.7105607451903684
 30
0.0
 10
0.3704711372461839
 20
0.710341616995007
 30
0.0
 10
0.370403984621689
 20
0.7102456800228272
 30
0.0
 10
0.3703853450543798
 20
0.7102190507784283
 30
0.0
  0
LINE
  5
169E
330
1F
100
AcDbEntity
  8
0
  6
Continuous
 62
     7
370
    15
100
AcDbLine
 10
0.3703853450543798
 20
0.7134190509304184
 30
0.0
 11
0.3702443073945506
 21
0.7134190509304184
 31
0.0
  0
SPLINE
  5
169F
330
1F
100
AcDbEntity
  8
0
  6
Continuous
 62
     7
370
    15
100
AcDbSpline
210
0.0
220
0.0
230
1.0
 70
     8
 71
     3
 72
     9
 73
     5
 74
     0
 42
0.0000000001
 43
0.0000000001
 40
0.0
 40
0.0
 40
0.0
 40
0.0
 40
0.722427554089314
 40
1.0
 40
1.0
 40
1.0
 40
1.0
 10
0.489725870975683
 20
0.7129190499171376
 30
0.0
 10
0.4900448296562349
 20
0.7130773543193876
 30
0.0
 10
0.4904863392287101
 20
0.7132964827307469
 30
0.0
 10
0.4909616996624425
 20
0.7133924210863871
 30
0.0
 10
0.4910936466207193
 20
0.7134190509304184
 30
0.0
  0
LINE
  5
16A0
330
1F
100
AcDbEntity
  8
0
  6
Continuous
 62
     7
370
    15
100
AcDbLine
 10
0.492091911298559
 20
0.7134190509304184
 30
0.0
 11
0.4910936466207193
 21
0.7134190509304184
 31
0.0
  0
SPLINE
  5
16A1
330
1F
100
AcDbEntity
  8
0
  6
Continuous
 62
     7
370
    15
100
AcDbSpline
210
0.0
220
0.0
230
1.0
 70
     8
 71
     3
 72
     9
 73
     5
 74
     0
 42
0.0000000001
 43
0.0000000001
 40
0.0
 40
0.0
 40
0.0
 40
0.0
 40
0.6195017127994845
 40
1.0
 40
1.0
 40
1.0
 40
1.0
 10
0.492091911298559
 20
0.7134190509304184
 30
0.0
 10
0.49238488095822
 20
0.7133476128685079
 30
0.0
 10
0.4928577927413617
 20
0.7132322975103176
 30
0.0
 10
0.4932937905313043
 20
0.713005388432568
 30
0.0
 10
0.4934596869436024
 20
0.7129190499171376
 30
0.0
  0
LINE
  5
16A2
330
1F
100
AcDbEntity
  8
0
  6
Continuous
 62
     7
370
    15
100
AcDbLine
 10
0.4934596869436024
 20
0.7129190499171376
 30
0.0
 11
0.4934596869436024
 21
0.7107190499290568
 31
0.0
  0
SPLINE
  5
16A3
330
1F
100
AcDbEntity
  8
0
  6
Continuous
 62
     7
370
    15
100
AcDbSpline
210
0.0
220
0.0
230
1.0
 70
     8
 71
     3
 72
     9
 73
     5
 74
     0
 42
0.0000000001
 43
0.0000000001
 40
0.0
 40
0.0
 40
0.0
 40
0.0
 40
0.7224277305831062
 40
1.0
 40
1.0
 40
1.0
 40
1.0
 10
0.4934596869436024
 20
0.7107190499290568
 30
0.0
 10
0.4931407283729511
 20
0.7105607449625275
 30
0.0
 10
0.4926992190604554
 20
0.710341615823608
 30
0.0
 10
0.4922238582715369
 20
0.7102456799238379
 30
0.0
 10
0.492091911298559
 20
0.7102190507784283
 30
0.0
  0
SPLINE
  5
16A4
330
1F
100
AcDbEntity
  8
0
  6
Continuous
 62
     7
370
    15
100
AcDbSpline
210
0.0
220
0.0
230
1.0
 70
     8
 71
     3
 72
     9
 73
     5
 74
     0
 42
0.0000000001
 43
0.0000000001
 40
0.0
 40
0.0
 40
0.0
 40
0.0
 40
0.6195015929729096
 40
1.0
 40
1.0
 40
1.0
 40
1.0
 10
0.4910936466207193
 20
0.7102190507784283
 30
0.0
 10
0.4908006769189871
 20
0.7102904880506469
 30
0.0
 10
0.4903277649764565
 20
0.7104058021564381
 30
0.0
 10
0.4898917673702948
 20
0.7106327113444781
 30
0.0
 10
0.489725870975683
 20
0.7107190499290568
 30
0.0
  0
LINE
  5
16A5
330
1F
100
AcDbEntity
  8
0
  6
Continuous
 62
     7
370
    15
100
AcDbLine
 10
0.489725870975683
 20
0.7129190499171376
 30
0.0
 11
0.489725870975683
 21
0.7107190499290568
 31
0.0
  0
SPLINE
  5
16A6
330
1F
100
AcDbEntity
  8
0
  6
Continuous
 62
     7
370
    15
100
AcDbSpline
210
0.0
220
0.0
230
1.0
 70
     8
 71
     3
 72
     9
 73
     5
 74
     0
 42
0.0000000001
 43
0.0000000001
 40
0.0
 40
0.0
 40
0.0
 40
0.0
 40
0.1268067113377513
 40
1.0
 40
1.0
 40
1.0
 40
1.0
 10
0.489725870975683
 20
0.7107190499290568
 30
0.0
 10
0.4896788085824116
 20
0.7106897343786376
 30
0.0
 10
0.4893076737049714
 20
0.7104585514222184
 30
0.0
 10
0.4889039066682489
 20
0.7103306945452781
 30
0.0
 10
0.4885513400016069
 20
0.7102190507784283
 30
0.0
  0
SPLINE
  5
16A7
330
1F
100
AcDbEntity
  8
0
  6
Continuous
 62
     7
370
    15
100
AcDbSpline
210
0.0
220
0.0
230
1.0
 70
     8
 71
     3
 72
     9
 73
     5
 74
     0
 42
0.0000000001
 43
0.0000000001
 40
0.0
 40
0.0
 40
0.0
 40
0.0
 40
0.2756379305250278
 40
1.0
 40
1.0
 40
1.0
 40
1.0
 10
0.4885513400016069
 20
0.7134190509304184
 30
0.0
 10
0.4886638575419301
 20
0.7133926389479079
 30
0.0
 10
0.4890720652951689
 20
0.713296817656347
 30
0.0
 10
0.4894512232992131
 20
0.7130777408476583
 30
0.0
 10
0.489725870975683
 20
0.7129190499171376
 30
0.0
  0
LINE
  5
16A8
330
1F
100
AcDbEntity
  8
0
  6
Continuous
 62
     7
370
    15
100
AcDbLine
 10
0.4885513400016069
 20
0.7134190509304184
 30
0.0
 11
0.4910936466207193
 21
0.7134190509304184
 31
0.0
  0
SPLINE
  5
16A9
330
1F
100
AcDbEntity
  8
0
  6
Continuous
 62
     7
370
    15
100
AcDbSpline
210
0.0
220
0.0
230
1.0
 70
     8
 71
     3
 72
     9
 73
     5
 74
     0
 42
0.0000000001
 43
0.0000000001
 40
0.0
 40
0.0
 40
0.0
 40
0.0
 40
0.1268063778234636
 40
1.0
 40
1.0
 40
1.0
 40
1.0
 10
0.4865195715629514
 20
0.7129190499171376
 30
0.0
 10
0.4865666339571598
 20
0.7129483654642084
 30
0.0
 10
0.4869377698181129
 20
0.7131795490022583
 30
0.0
 10
0.4873415378351641
 20
0.7133074065420868
 30
0.0
 10
0.4876941054924945
 20
0.7134190509304184
 30
0.0
  0
SPLINE
  5
16AA
330
1F
100
AcDbEntity
  8
0
  6
Continuous
 62
     7
370
    15
100
AcDbSpline
210
0.0
220
0.0
230
1.0
 70
     8
 71
     3
 72
     9
 73
     5
 74
     0
 42
0.0000000001
 43
0.0000000001
 40
0.0
 40
0.0
 40
0.0
 40
0.0
 40
0.275637438518536
 40
1.0
 40
1.0
 40
1.0
 40
1.0
 10
0.4876941054924945
 20
0.7102190507784283
 30
0.0
 10
0.487581587968997
 20
0.7102454628167874
 30
0.0
 10
0.4871733795481749
 20
0.710341284482028
 30
0.0
 10
0.4867942203157586
 20
0.7105603598989181
 30
0.0
 10
0.4865195715629514
 20
0.7107190499290568
 30
0.0
  0
LINE
  5
16AB
330
1F
100
AcDbEntity
  8
0
  6
Continuous
 62
     7
370
    15
100
AcDbLine
 10
0.4865195715629514
 20
0.7129190499171376
 30
0.0
 11
0.4865195715629514
 21
0.7107190499290568
 31
0.0
  0
LINE
  5
16AC
330
1F
100
AcDbEntity
  8
0
  6
Continuous
 62
     7
370
    15
100
AcDbLine
 10
0.4885513400016069
 20
0.7134190509304184
 30
0.0
 11
0.4876941054924945
 21
0.7134190509304184
 31
0.0
  0
SPLINE
  5
16AD
330
1F
100
AcDbEntity
  8
0
  6
Continuous
 62
     7
370
    15
100
AcDbSpline
210
0.0
220
0.0
230
1.0
 70
     8
 71
     3
 72
     9
 73
     5
 74
     0
 42
0.0000000001
 43
0.0000000001
 40
0.0
 40
0.0
 40
0.0
 40
0.0
 40
0.6195015929729096
 40
1.0
 40
1.0
 40
1.0
 40
1.0
 10
0.4936529286590948
 20
0.7102190507784283
 30
0.0
 10
0.4936115363888124
 20
0.7102904880506469
 30
0.0
 10
0.4935447209508016
 20
0.7104058021564381
 30
0.0
 10
0.4934831243515067
 20
0.7106327113444781
 30
0.0
 10
0.4934596869436024
 20
0.7107190499290568
 30
0.0
  0
SPLINE
  5
16AE
330
1F
100
AcDbEntity
  8
0
  6
Continuous
 62
     7
370
    15
100
AcDbSpline
210
0.0
220
0.0
230
1.0
 70
     8
 71
     3
 72
     9
 73
     5
 74
     0
 42
0.0000000001
 43
0.0000000001
 40
0.0
 40
0.0
 40
0.0
 40
0.0
 40
0.722427554089314
 40
1.0
 40
1.0
 40
1.0
 40
1.0
 10
0.4934596869436024
 20
0.7129190499171376
 30
0.0
 10
0.4935047486484828
 20
0.7130773543193876
 30
0.0
 10
0.4935671240446385
 20
0.7132964827307469
 30
0.0
 10
0.4936342862746429
 20
0.7133924210863871
 30
0.0
 10
0.4936529286590948
 20
0.7134190509304184
 30
0.0
  0
LINE
  5
16AF
330
1F
100
AcDbEntity
  8
0
  6
Continuous
 62
     7
370
    15
100
AcDbLine
 10
0.492091911298559
 20
0.7134190509304184
 30
0.0
 11
0.4936529286590948
 21
0.7134190509304184
 31
0.0
  0
SPLINE
  5
16B0
330
1F
100
AcDbEntity
  8
0
  6
Continuous
 62
     7
370
    15
100
AcDbSpline
210
0.0
220
0.0
230
1.0
 70
     8
 71
     3
 72
     9
 73
     5
 74
     0
 42
0.0000000001
 43
0.0000000001
 40
0.0
 40
0.0
 40
0.0
 40
0.0
 40
0.6195017127994845
 40
1.0
 40
1.0
 40
1.0
 40
1.0
 10
0.4937939588278301
 20
0.7134190509304184
 30
0.0
 10
0.4938353510921653
 20
0.7133476128685079
 30
0.0
 10
0.4939021665076598
 20
0.7132322975103176
 30
0.0
 10
0.493963763132918
 20
0.713005388432568
 30
0.0
 10
0.4939872005433233
 20
0.7129190499171376
 30
0.0
  0
LINE
  5
16B1
330
1F
100
AcDbEntity
  8
0
  6
Continuous
 62
     7
370
    15
100
AcDbLine
 10
0.4939872005433233
 20
0.7129190499171376
 30
0.0
 11
0.4939872005433233
 21
0.7107190499290568
 31
0.0
  0
SPLINE
  5
16B2
330
1F
100
AcDbEntity
  8
0
  6
Continuous
 62
     7
370
    15
100
AcDbSpline
210
0.0
220
0.0
230
1.0
 70
     8
 71
     3
 72
     9
 73
     5
 74
     0
 42
0.0000000001
 43
0.0000000001
 40
0.0
 40
0.0
 40
0.0
 40
0.0
 40
0.7224277305831062
 40
1.0
 40
1.0
 40
1.0
 40
1.0
 10
0.4939872005433233
 20
0.7107190499290568
 30
0.0
 10
0.4939421388539674
 20
0.7105607449625275
 30
0.0
 10
0.4938797634945405
 20
0.710341615823608
 30
0.0
 10
0.4938126012143599
 20
0.7102456799238379
 30
0.0
 10
0.4937939588278301
 20
0.7102190507784283
 30
0.0
  0
LINE
  5
16B3
330
1F
100
AcDbEntity
  8
0
  6
Continuous
 62
     7
370
    15
100
AcDbLine
 10
0.4937939588278301
 20
0.7134190509304184
 30
0.0
 11
0.4936529286590948
 21
0.7134190509304184
 31
0.0
  0
SPLINE
  5
16B4
330
1F
100
AcDbEntity
  8
0
  6
Continuous
 62
     7
370
    15
100
AcDbSpline
210
0.0
220
0.0
230
1.0
 70
     8
 71
     3
 72
     9
 73
     5
 74
     0
 42
0.0000000001
 43
0.0000000001
 40
0.0
 40
0.0
 40
0.0
 40
0.0
 40
0.7224274230880852
 40
1.0
 40
1.0
 40
1.0
 40
1.0
 10
0.4865195715629514
 20
0.7107190499290568
 30
0.0
 10
0.486564634620365
 20
0.7105607449286968
 30
0.0
 10
0.4866270119000419
 20
0.7103416156496778
 30
0.0
 10
0.4866941739035381
 20
0.7102456799091474
 30
0.0
 10
0.4867128162339188
 20
0.7102190507784283
 30
0.0
  0
SPLINE
  5
16B5
330
1F
100
AcDbEntity
  8
0
  6
Continuous
 62
     7
370
    15
100
AcDbSpline
210
0.0
220
0.0
230
1.0
 70
     8
 71
     3
 72
     9
 73
     5
 74
     0
 42
0.0000000001
 43
0.0000000001
 40
0.0
 40
0.0
 40
0.0
 40
0.0
 40
0.6195023853765994
 40
1.0
 40
1.0
 40
1.0
 40
1.0
 10
0.4867128162339188
 20
0.7134190509304184
 30
0.0
 10
0.4866714244997684
 20
0.7133476130004983
 30
0.0
 10
0.4866046100126556
 20
0.7132322979805581
 30
0.0
 10
0.4865430101599623
 20
0.7130053884516283
 30
0.0
 10
0.4865195715629514
 20
0.7129190499171376
 30
0.0
  0
LINE
  5
16B6
330
1F
100
AcDbEntity
  8
0
  6
Continuous
 62
     7
370
    15
100
AcDbLine
 10
0.4867128162339188
 20
0.7134190509304184
 30
0.0
 11
0.4876941054924945
 21
0.7134190509304184
 31
0.0
  0
LINE
  5
16BD
330
1F
100
AcDbEntity
  8
0
  6
Continuous
 62
     7
370
    15
100
AcDbLine
 10
0.4890358622054766
 20
0.7134690499141574
 30
0.0
 11
0.4882533937342334
 21
0.7134690499141574
 31
0.0
  0
LINE
  5
16BE
330
1F
100
AcDbEntity
  8
0
  6
Continuous
 62
     7
370
    15
100
AcDbLine
 10
0.4922533903987659
 20
0.7134690499141574
 30
0.0
 11
0.4890358622054766
 21
0.7134690499141574
 31
0.0
  0
LINE
  5
16BF
330
1F
100
AcDbEntity
  8
0
  6
Continuous
 62
     7
370
    15
100
AcDbLine
 10
0.4894924364703138
 20
0.7142190495714271
 30
0.0
 11
0.4915033904572116
 21
0.7142190495714271
 31
0.0
  0
LINE
  5
16C0
330
1F
100
AcDbEntity
  8
0
  6
Continuous
 62
     7
370
    15
100
AcDbLine
 10
0.4890033846045311
 20
0.7142190495714271
 30
0.0
 11
0.4894924364703138
 21
0.7142190495714271
 31
0.0
  0
LINE
  5
16C1
330
1F
100
AcDbEntity
  8
0
  6
Continuous
 62
     7
370
    15
100
AcDbLine
 10
0.3688447645985921
 20
0.7134690499141574
 30
0.0
 11
0.3648447679340666
 21
0.7134690499141574
 31
0.0
  0
LINE
  5
16C2
330
1F
100
AcDbEntity
  8
0
  6
Continuous
 62
     7
370
    15
100
AcDbLine
 10
0.3655947708310879
 20
0.7142190495714271
 30
0.0
 11
0.3680947676125118
 21
0.7142190495714271
 31
0.0
  0
LINE
  5
16C3
330
1F
100
AcDbEntity
  8
0
  6
Continuous
 62
     7
370
    15
100
AcDbLine
 10
0.2454361489773124
 20
0.7134690499141574
 30
0.0
 11
0.2414361511788744
 21
0.7134690499141574
 31
0.0
  0
LINE
  5
16C4
330
1F
100
AcDbEntity
  8
0
  6
Continuous
 62
     7
370
    15
100
AcDbLine
 10
0.2446754507281023
 20
0.7142190495714271
 30
0.0
 11
0.244686146080291
 21
0.7142190495714271
 31
0.0
  0
LINE
  5
16C5
330
1F
100
AcDbEntity
  8
0
  6
Continuous
 62
     7
370
    15
100
AcDbLine
 10
0.2421861540759028
 20
0.7142190495714271
 30
0.0
 11
0.2446754507281023
 21
0.7142190495714271
 31
0.0
  0
LINE
  5
16CC
330
1F
100
AcDbEntity
  8
0
  6
Continuous
 62
     7
370
    15
100
AcDbLine
 10
0.4862600448254429
 20
0.6622190503611975
 30
0.0
 11
0.4862600448254429
 21
0.6647190498396569
 31
0.0
  0
LINE
  5
16CD
330
1F
100
AcDbEntity
  8
0
  6
Continuous
 62
     7
370
    15
100
AcDbLine
 10
0.4862600448254429
 20
0.6647190498396569
 30
0.0
 11
0.4862533879108714
 21
0.6647190498396569
 31
0.0
  0
LINE
  5
16CE
330
1F
100
AcDbEntity
  8
0
  6
Continuous
 62
     7
370
    15
100
AcDbLine
 10
0.4942467272808319
 20
0.6622190503611975
 30
0.0
 11
0.4942467272808319
 21
0.6647190498396569
 31
0.0
  0
LINE
  5
16D4
330
1F
100
AcDbEntity
  8
0
  6
Continuous
 62
     7
370
    15
100
AcDbLine
 10
0.4862600448254429
 20
0.6742190504654968
 30
0.0
 11
0.4862600448254429
 21
0.6767190499439579
 31
0.0
  0
LINE
  5
16D5
330
1F
100
AcDbEntity
  8
0
  6
Continuous
 62
     7
370
    15
100
AcDbLine
 10
0.4862600448254429
 20
0.6767190499439579
 30
0.0
 11
0.4862533879108714
 21
0.6767190499439579
 31
0.0
  0
LINE
  5
16D6
330
1F
100
AcDbEntity
  8
0
  6
Continuous
 62
     7
370
    15
100
AcDbLine
 10
0.4942467272808319
 20
0.6742190504654968
 30
0.0
 11
0.4942467272808319
 21
0.6767190499439579
 31
0.0
  0
LINE
  5
16DE
330
1F
100
AcDbEntity
  8
0
  6
Continuous
 62
     7
370
    15
100
AcDbLine
 10
0.230363892104933
 20
0.6602190500333684
 30
0.0
 11
0.5033256383777885
 21
0.6602190500333684
 31
0.0
  0
LINE
  5
16DF
330
1F
100
AcDbEntity
  8
0
  6
Continuous
 62
     7
370
    15
100
AcDbLine
 10
0.230363892104933
 20
0.6622190503611975
 30
0.0
 11
0.5033256383777885
 21
0.6622190503611975
 31
0.0
  0
LINE
  5
16E0
330
1F
100
AcDbEntity
  8
0
  6
Continuous
 62
     7
370
    15
100
AcDbLine
 10
0.230363892104933
 20
0.6602190500333684
 30
0.0
 11
0.2299229178115855
 21
0.6602190500333684
 31
0.0
  0
LINE
  5
16E1
330
1F
100
AcDbEntity
  8
0
  6
Continuous
 62
     7
370
    15
100
AcDbLine
 10
0.2299229178115855
 20
0.6622190503611975
 30
0.0
 11
0.230363892104933
 21
0.6622190503611975
 31
0.0
  0
LINE
  5
16E2
330
1F
100
AcDbEntity
  8
0
  6
Continuous
 62
     7
370
    15
100
AcDbLine
 10
0.5037666190925879
 20
0.6602190500333684
 30
0.0
 11
0.5033256383777885
 21
0.6602190500333684
 31
0.0
  0
LINE
  5
16E3
330
1F
100
AcDbEntity
  8
0
  6
Continuous
 62
     7
370
    15
100
AcDbLine
 10
0.5033256383777885
 20
0.6622190503611975
 30
0.0
 11
0.5037666190925879
 21
0.6622190503611975
 31
0.0
  0
LINE
  5
16E5
330
1F
100
AcDbEntity
  8
0
  6
Continuous
 62
     7
370
    15
100
AcDbLine
 10
0.2299229126764922
 20
0.6602190500333684
 30
0.0
 11
0.2262874680725216
 21
0.6602190500333684
 31
0.0
  0
LINE
  5
16E6
330
1F
100
AcDbEntity
  8
0
  6
Continuous
 62
     7
370
    15
100
AcDbLine
 10
0.2262874680725216
 20
0.6622190503611975
 30
0.0
 11
0.2299229126764922
 21
0.6622190503611975
 31
0.0
  0
LINE
  5
16E8
330
1F
100
AcDbEntity
  8
0
  6
Continuous
 62
     7
370
    15
100
AcDbLine
 10
0.5074020677957666
 20
0.6602190500333684
 30
0.0
 11
0.5037666232701529
 21
0.6602190500333684
 31
0.0
  0
LINE
  5
16E9
330
1F
100
AcDbEntity
  8
0
  6
Continuous
 62
     7
370
    15
100
AcDbLine
 10
0.5037666232701529
 20
0.6622190503611975
 30
0.0
 11
0.5074020677957666
 21
0.6622190503611975
 31
0.0
  0
LINE
  5
16EA
330
1F
100
AcDbEntity
  8
0
  6
Continuous
 62
     7
370
    15
100
AcDbLine
 10
0.2068447637783221
 20
0.6602190500333684
 30
0.0
 11
0.2262874680725216
 21
0.6602190500333684
 31
0.0
  0
LINE
  5
16EB
330
1F
100
AcDbEntity
  8
0
  6
Continuous
 62
     7
370
    15
100
AcDbLine
 10
0.2068447637783221
 20
0.6622190503611975
 30
0.0
 11
0.2262874680725216
 21
0.6622190503611975
 31
0.0
  0
LINE
  5
16EC
330
1F
100
AcDbEntity
  8
0
  6
Continuous
 62
     7
370
    15
100
AcDbLine
 10
0.5074020677957666
 20
0.6602190500333684
 30
0.0
 11
0.5268447653911895
 21
0.6602190500333684
 31
0.0
  0
LINE
  5
16ED
330
1F
100
AcDbEntity
  8
0
  6
Continuous
 62
     7
370
    15
100
AcDbLine
 10
0.5074020677957666
 20
0.6622190503611975
 30
0.0
 11
0.5268447653911895
 21
0.6622190503611975
 31
0.0
  0
LINE
  5
16EE
330
1F
100
AcDbEntity
  8
0
  6
Continuous
 62
     7
370
    15
100
AcDbLine
 10
0.4468447688090155
 20
0.6742190504654968
 30
0.0
 11
0.5268447653911895
 21
0.6742190504654968
 31
0.0
  0
LINE
  5
16EF
330
1F
100
AcDbEntity
  8
0
  6
Continuous
 62
     7
370
    15
100
AcDbLine
 10
0.2068447637783221
 20
0.6742190504654968
 30
0.0
 11
0.4468447688090155
 21
0.6742190504654968
 31
0.0
  0
LINE
  5
16F0
330
1F
100
AcDbEntity
  8
0
  6
Continuous
 62
     7
370
    15
100
AcDbLine
 10
0.4468447688090155
 20
0.6722190501376784
 30
0.0
 11
0.5268447653911895
 21
0.6722190501376784
 31
0.0
  0
LINE
  5
16F1
330
1F
100
AcDbEntity
  8
0
  6
Continuous
 62
     7
370
    15
100
AcDbLine
 10
0.2068447637783221
 20
0.6722190501376784
 30
0.0
 11
0.4468447688090155
 21
0.6722190501376784
 31
0.0
  0
LINE
  5
16F2
330
1F
100
AcDbEntity
  8
0
  6
Continuous
 62
     7
370
    15
100
AcDbLine
 10
0.2694429414453688
 20
0.6842190502419883
 30
0.0
 11
0.5268447653911895
 21
0.6842190502419883
 31
0.0
  0
LINE
  5
16F3
330
1F
100
AcDbEntity
  8
0
  6
Continuous
 62
     7
370
    15
100
AcDbLine
 10
0.2068447637783221
 20
0.6842190502419883
 30
0.0
 11
0.2694429414453688
 21
0.6842190502419883
 31
0.0
  0
LINE
  5
16F4
330
1F
100
AcDbEntity
  8
0
  6
Continuous
 62
     7
370
    15
100
AcDbLine
 10
0.2694429414453688
 20
0.6862190503369778
 30
0.0
 11
0.5268447653911895
 21
0.6862190503369778
 31
0.0
  0
LINE
  5
16F5
330
1F
100
AcDbEntity
  8
0
  6
Continuous
 62
     7
370
    15
100
AcDbLine
 10
0.2068447637783221
 20
0.6862190503369778
 30
0.0
 11
0.2694429414453688
 21
0.6862190503369778
 31
0.0
  0
LINE
  5
16F6
330
1F
100
AcDbEntity
  8
0
  6
Continuous
 62
     7
370
    15
100
AcDbLine
 10
0.2694429414453688
 20
0.6962190503462982
 30
0.0
 11
0.5268447653911895
 21
0.6962190503462982
 31
0.0
  0
LINE
  5
16F7
330
1F
100
AcDbEntity
  8
0
  6
Continuous
 62
     7
370
    15
100
AcDbLine
 10
0.2068447637783221
 20
0.6962190503462982
 30
0.0
 11
0.2694429414453688
 21
0.6962190503462982
 31
0.0
  0
LINE
  5
16F8
330
1F
100
AcDbEntity
  8
0
  6
Continuous
 62
     7
370
    15
100
AcDbLine
 10
0.2694429414453688
 20
0.6982190506741184
 30
0.0
 11
0.5268447653911895
 21
0.6982190506741184
 31
0.0
  0
LINE
  5
16F9
330
1F
100
AcDbEntity
  8
0
  6
Continuous
 62
     7
370
    15
100
AcDbLine
 10
0.2068447637783221
 20
0.6982190506741184
 30
0.0
 11
0.2694429414453688
 21
0.6982190506741184
 31
0.0
  0
LINE
  5
16FA
330
1F
100
AcDbEntity
  8
0
  6
Continuous
 62
     7
370
    15
100
AcDbLine
 10
0.2694429414453688
 20
0.7082190504505974
 30
0.0
 11
0.5268447653911895
 21
0.7082190504505974
 31
0.0
  0
LINE
  5
16FB
330
1F
100
AcDbEntity
  8
0
  6
Continuous
 62
     7
370
    15
100
AcDbLine
 10
0.2068447637783221
 20
0.7082190504505974
 30
0.0
 11
0.2694429414453688
 21
0.7082190504505974
 31
0.0
  0
LINE
  5
16FC
330
1F
100
AcDbEntity
  8
0
  6
Continuous
 62
     7
370
    15
100
AcDbLine
 10
0.2694429414453688
 20
0.7102190507784283
 30
0.0
 11
0.5268447653911895
 21
0.7102190507784283
 31
0.0
  0
LINE
  5
16FD
330
1F
100
AcDbEntity
  8
0
  6
Continuous
 62
     7
370
    15
100
AcDbLine
 10
0.2068447637783221
 20
0.7102190507784283
 30
0.0
 11
0.2694429414453688
 21
0.7102190507784283
 31
0.0
  0
POINT
  5
16FE
330
1F
100
AcDbEntity
  8
0
  6
Continuous
 62
     7
370
    15
100
AcDbPoint
 10
0.2068447637783221
 20
0.7102190507784283
 30
0.0
  0
POINT
  5
16FF
330
1F
100
AcDbEntity
  8
0
  6
Continuous
 62
     7
370
    15
100
AcDbPoint
 10
0.2068447637783221
 20
0.6602190500333684
 30
0.0
  0
LINE
  5
1702
330
1F
100
AcDbEntity
  8
0
  6
Continuous
 62
     7
370
    15
100
AcDbLine
 10
0.3633447680509579
 20
0.6566190505608678
 30
0.0
 11
0.3703447644816998
 21
0.6566190505608678
 31
0.0
  0
LINE
  5
1703
330
1F
100
AcDbEntity
  8
0
  6
Continuous
 62
     7
370
    15
100
AcDbLine
 10
0.4867533908956568
 20
0.6566190505608678
 30
0.0
 11
0.4937533902818675
 21
0.6566190505608678
 31
0.0
  0
LINE
  5
1704
330
1F
100
AcDbEntity
  8
0
  6
Continuous
 62
     7
370
    15
100
AcDbLine
 10
0.2399361453848327
 20
0.6566190505608678
 30
0.0
 11
0.2469361429494729
 21
0.6566190505608678
 31
0.0
  0
LINE
  5
17AA
330
1F
100
AcDbEntity
  8
S&C_cotas
  6
Continuous
370
    -2
100
AcDbLine
 10
0.0671254442448019
 20
-0.0348491719157084
 30
0.0
 11
0.0671254442448019
 21
-0.1248682701271035
 31
0.0
  0
LINE
  5
17AB
330
1F
100
AcDbEntity
  8
S&C_cotas
  6
Continuous
370
    -2
100
AcDbLine
 10
0.667125444244802
 20
-0.0368659585252496
 30
0.0
 11
0.6676012784149675
 21
-0.1268850567366446
 31
0.0
  0
MTEXT
  5
17AC
330
1F
100
AcDbEntity
  8
S&C_cotas
  6
Continuous
100
AcDbMText
 10
0.3668920121854597
 20
-0.0861240388319646
 30
0.0
 40
0.02
 41
0.0
 71
     5
 72
     1
  1
%%c60 cm / 23.6"
  7
ARIAL
 73
     1
 44
1.0
  0
CIRCLE
  5
18CC
330
1F
100
AcDbEntity
  8
0
  6
Continuous
 62
     7
370
    15
100
AcDbCircle
 10
0.367125444244802
 20
-0.4850493419381995
 30
0.0
 40
0.3
  0
CIRCLE
  5
18CE
330
1F
100
AcDbEntity
  8
0
  6
Continuous
 62
     7
370
    15
100
AcDbCircle
 10
0.367125444244802
 20
-0.4850493419381995
 30
0.0
 40
0.2171026863427585
  0
CIRCLE
  5
18D0
330
1F
100
AcDbEntity
  8
0
  6
Continuous
 62
     7
370
    15
100
AcDbCircle
 10
0.367125444244802
 20
-0.4850493419381995
 30
0.0
 40
0.2604985955056122
  0
CIRCLE
  5
1B19
330
1F
100
AcDbEntity
  8
0
  6
Continuous
 62
     7
370
    15
100
AcDbCircle
 10
0.367125444244802
 20
-0.4850493419381994
 30
0.0
 40
0.1600635019596441
  0
LINE
  5
1B21
330
1F
100
AcDbEntity
  8
0
  6
Continuous
 62
     7
370
    15
100
AcDbLine
 10
0.367125444244802
 20
0.0905858920176801
 30
0.0
 11
0.367125444244802
 21
0.6565166570936414
 31
0.0
  0
LINE
  5
1B22
330
1F
100
AcDbEntity
  8
0
  6
Continuous
 62
     7
370
    15
100
AcDbLine
 10
0.3617669821359637
 20
0.0905858920176801
 30
0.0
 11
0.372766982135931
 21
0.0905858920176801
 31
0.0
  0
LINE
  5
1B23
330
1F
100
AcDbEntity
  8
0
  6
Continuous
 62
     7
370
    15
100
AcDbLine
 10
0.3617669821359637
 20
0.081585892017781
 30
0.0
 11
0.3607669821359305
 21
0.081585892017781
 31
0.0
  0
LINE
  5
1B24
330
1F
100
AcDbEntity
  8
0
  6
Continuous
 62
     7
370
    15
100
AcDbLine
 10
0.3737669821359064
 20
0.081585892017781
 30
0.0
 11
0.372766982135931
 21
0.081585892017781
 31
0.0
  0
LINE
  5
1B25
330
1F
100
AcDbEntity
  8
0
  6
Continuous
 62
     7
370
    15
100
AcDbLine
 10
0.3617669821359637
 20
0.081585892017781
 30
0.0
 11
0.3647669821359212
 21
0.081585892017781
 31
0.0
  0
LINE
  5
1B26
330
1F
100
AcDbEntity
  8
0
  6
Continuous
 62
     7
370
    15
100
AcDbLine
 10
0.3617669821359637
 20
0.0805858920176909
 30
0.0
 11
0.3617669821359637
 21
0.081585892017781
 31
0.0
  0
LINE
  5
1B27
330
1F
100
AcDbEntity
  8
0
  6
Continuous
 62
     7
370
    15
100
AcDbLine
 10
0.3697669821359166
 20
0.081585892017781
 30
0.0
 11
0.3647669821359212
 21
0.081585892017781
 31
0.0
  0
LINE
  5
1B28
330
1F
100
AcDbEntity
  8
0
  6
Continuous
 62
     7
370
    15
100
AcDbLine
 10
0.3697669821359166
 20
0.081585892017781
 30
0.0
 11
0.372766982135931
 21
0.081585892017781
 31
0.0
  0
LINE
  5
1B29
330
1F
100
AcDbEntity
  8
0
  6
Continuous
 62
     7
370
    15
100
AcDbLine
 10
0.372766982135931
 20
0.081585892017781
 30
0.0
 11
0.372766982135931
 21
0.0805858920176909
 31
0.0
  0
LINE
  5
1B2A
330
1F
100
AcDbEntity
  8
0
  6
Continuous
 62
     7
370
    15
100
AcDbLine
 10
0.0716614286087933
 20
0.0815858026518016
 30
0.0
 11
0.0731614286088147
 21
0.0815858026518016
 31
0.0
  0
LINE
  5
1B2B
330
1F
100
AcDbEntity
  8
0
  6
Continuous
 62
     7
370
    15
100
AcDbLine
 10
0.0770896318391026
 20
0.0815858026518016
 30
0.0
 11
0.0731614286088147
 21
0.0815858026518016
 31
0.0
  0
LINE
  5
1B2C
330
1F
100
AcDbEntity
  8
0
  6
Continuous
 62
     7
370
    15
100
AcDbLine
 10
0.0982761653185678
 20
0.0815858026518016
 30
0.0
 11
0.0830896318391028
 21
0.0815858026518016
 31
0.0
  0
ARC
  5
1B2D
330
1F
100
AcDbEntity
  8
0
  6
Continuous
 62
     7
370
    15
100
AcDbCircle
 10
0.1037531981313309
 20
0.0784093600236401
 30
0.0
 40
0.003176524802526
100
AcDbArc
 50
43.55191927268503
 51
89.58576491575866
  0
LINE
  5
1B2E
330
1F
100
AcDbEntity
  8
0
  6
Continuous
 62
     7
370
    15
100
AcDbLine
 10
0.0982761653185678
 20
0.0815858026518016
 30
0.0
 11
0.1037761653185798
 21
0.0815858026518016
 31
0.0
  0
LINE
  5
1B2F
330
1F
100
AcDbEntity
  8
0
  6
Continuous
 62
     7
370
    15
100
AcDbLine
 10
0.372766982135931
 20
0.0792650759924793
 30
0.0
 11
0.372766982135931
 21
0.0767851507382797
 31
0.0
  0
LINE
  5
1B30
330
1F
100
AcDbEntity
  8
0
  6
Continuous
 62
     7
370
    15
100
AcDbLine
 10
0.3617669821359637
 20
0.0792650759924793
 30
0.0
 11
0.3617669821359637
 21
0.0767851507382797
 31
0.0
  0
ARC
  5
1B31
330
1F
100
AcDbEntity
  8
0
  6
Continuous
 62
     7
370
    15
100
AcDbCircle
 10
0.3644476261392124
 20
0.0767960738754905
 30
0.0
 40
0.0026806662290849
100
AcDbArc
 50
180.2334727241798
 51
215.5635555537071
  0
ARC
  5
1B32
330
1F
100
AcDbEntity
  8
0
  6
Continuous
 62
     7
370
    15
100
AcDbCircle
 10
0.3701440249770054
 20
0.0767857788646372
 30
0.0
 40
0.0026229572043736
100
AcDbArc
 50
324.0349515214364
 51
359.9862750164055
  0
LINE
  5
1B33
330
1F
100
AcDbEntity
  8
0
  6
Continuous
 62
     7
370
    15
100
AcDbLine
 10
0.372766982135931
 20
0.079585892017711
 30
0.0
 11
0.372766982135931
 21
0.0792650759924793
 31
0.0
  0
LINE
  5
1B34
330
1F
100
AcDbEntity
  8
0
  6
Continuous
 62
     7
370
    15
100
AcDbLine
 10
0.3617669821359637
 20
0.079585892017711
 30
0.0
 11
0.3617669821359637
 21
0.0792650759924793
 31
0.0
  0
LINE
  5
1B35
330
1F
100
AcDbEntity
  8
0
  6
Continuous
 62
     7
370
    15
100
AcDbLine
 10
0.372766982135931
 20
0.079585892017711
 30
0.0
 11
0.3697669821359166
 21
0.079585892017711
 31
0.0
  0
LINE
  5
1B36
330
1F
100
AcDbEntity
  8
0
  6
Continuous
 62
     7
370
    15
100
AcDbLine
 10
0.372766982135931
 20
0.0805858920176909
 30
0.0
 11
0.372766982135931
 21
0.079585892017711
 31
0.0
  0
LINE
  5
1B37
330
1F
100
AcDbEntity
  8
0
  6
Continuous
 62
     7
370
    15
100
AcDbLine
 10
0.3617669821359637
 20
0.079585892017711
 30
0.0
 11
0.3617669821359637
 21
0.0805858920176909
 31
0.0
  0
LINE
  5
1B38
330
1F
100
AcDbEntity
  8
0
  6
Continuous
 62
     7
370
    15
100
AcDbLine
 10
0.3647669821359212
 20
0.079585892017711
 30
0.0
 11
0.3617669821359637
 21
0.079585892017711
 31
0.0
  0
LINE
  5
1B39
330
1F
100
AcDbEntity
  8
0
  6
Continuous
 62
     7
370
    15
100
AcDbLine
 10
0.3697669821359166
 20
0.079585892017711
 30
0.0
 11
0.3647669821359212
 21
0.079585892017711
 31
0.0
  0
LINE
  5
1B3A
330
1F
100
AcDbEntity
  8
0
  6
Continuous
 62
     7
370
    15
100
AcDbLine
 10
0.3722669821359152
 20
0.048585892017881
 30
0.0
 11
0.3622669821359235
 21
0.048585892017881
 31
0.0
  0
LINE
  5
1B3B
330
1F
100
AcDbEntity
  8
0
  6
Continuous
 62
     7
370
    15
100
AcDbLine
 10
0.6670929104095399
 20
0.0165858920178401
 30
0.0
 11
0.0671254442448019
 21
0.0165858920178401
 31
0.0
  0
LINE
  5
1B3C
330
1F
100
AcDbEntity
  8
0
  6
Continuous
 62
     7
370
    15
100
AcDbLine
 10
0.667125444244802
 20
0.046585892017811
 30
0.0
 11
0.0671254442448019
 21
0.046585892017811
 31
0.0
  0
LINE
  5
1B3D
330
1F
100
AcDbEntity
  8
0
  6
Continuous
 62
     7
370
    15
100
AcDbLine
 10
0.3617669821359637
 20
0.0905858920176801
 30
0.0
 11
0.3610598753547716
 21
0.0898787852364897
 31
0.0
  0
LINE
  5
1B3E
330
1F
100
AcDbEntity
  8
0
  6
Continuous
 62
     7
370
    15
100
AcDbLine
 10
0.3734740889171231
 20
0.0898787852364897
 30
0.0
 11
0.372766982135931
 21
0.0905858920176801
 31
0.0
  0
LINE
  5
1B3F
330
1F
100
AcDbEntity
  8
0
  6
Continuous
 62
     7
370
    15
100
AcDbLine
 10
0.3607669821359305
 20
0.0891716784552994
 30
0.0
 11
0.3607669821359305
 21
0.081585892017781
 31
0.0
  0
LINE
  5
1B40
330
1F
100
AcDbEntity
  8
0
  6
Continuous
 62
     7
370
    15
100
AcDbLine
 10
0.3737669821359064
 20
0.081585892017781
 30
0.0
 11
0.3737669821359064
 21
0.0891716784552994
 31
0.0
  0
ARC
  5
1B41
330
1F
100
AcDbEntity
  8
0
  6
Continuous
 62
     7
370
    15
100
AcDbCircle
 10
0.372766982135931
 20
0.0891716784552994
 30
0.0
 40
0.0010000000000048
100
AcDbArc
 50
0.0
 51
45.0
  0
ARC
  5
1B42
330
1F
100
AcDbEntity
  8
0
  6
Continuous
 62
     7
370
    15
100
AcDbCircle
 10
0.3617669821359637
 20
0.0891716784552994
 30
0.0
 40
0.0010000000000079
100
AcDbArc
 50
134.9999999999994
 51
179.9999999999994
  0
LINE
  5
1B43
330
1F
100
AcDbEntity
  8
0
  6
Continuous
 62
     7
370
    15
100
AcDbLine
 10
0.0716614286087933
 20
0.0815858026518016
 30
0.0
 11
0.0716614490784779
 21
0.0805980224597215
 31
0.0
  0
LINE
  5
1B44
330
1F
100
AcDbEntity
  8
0
  6
Continuous
 62
     7
370
    15
100
AcDbLine
 10
0.3632669819459575
 20
0.0485858913536106
 30
0.0
 11
0.3632669819459575
 21
0.0465858928883094
 31
0.0
  0
LINE
  5
1B45
330
1F
100
AcDbEntity
  8
0
  6
Continuous
 62
     7
370
    15
100
AcDbLine
 10
0.3712669823259371
 20
0.0465858928883094
 30
0.0
 11
0.3712669823259371
 21
0.0485858913536106
 31
0.0
  0
LINE
  5
1B46
330
1F
100
AcDbEntity
  8
0
  6
Continuous
 62
     7
370
    15
100
AcDbLine
 10
0.362266982247706
 20
0.0795858908469711
 30
0.0
 11
0.3622669821359235
 21
0.048585892017881
 31
0.0
  0
LINE
  5
1B47
330
1F
100
AcDbEntity
  8
0
  6
Continuous
 62
     7
370
    15
100
AcDbLine
 10
0.3722669821359152
 20
0.048585892017881
 30
0.0
 11
0.3722669820241602
 21
0.0671029347951411
 31
0.0
  0
LINE
  5
1B48
330
1F
100
AcDbEntity
  8
0
  6
Continuous
 62
     7
370
    15
100
AcDbLine
 10
0.3722669820241602
 20
0.0671029347951411
 30
0.0
 11
0.3722669820241602
 21
0.0795858908469711
 31
0.0
  0
LINE
  5
1B49
330
1F
100
AcDbEntity
  8
0
  6
Continuous
 62
     7
370
    15
100
AcDbLine
 10
0.13825184386482
 20
0.0040046664315555
 30
0.0
 11
0.5959990446247738
 21
0.0040046664314773
 31
0.0
  0
ARC
  5
1B4A
330
1F
100
AcDbEntity
  8
0
  6
Continuous
 62
     7
370
    15
100
AcDbCircle
 10
0.1382518438648577
 20
0.0070046664315252
 30
0.0
 40
0.0029999999999697
100
AcDbArc
 50
207.5388233488566
 51
269.9999999992806
  0
ARC
  5
1B4B
330
1F
100
AcDbEntity
  8
0
  6
Continuous
 62
     7
370
    15
100
AcDbCircle
 10
0.5959990446247738
 20
0.00700466643152
 30
0.0
 40
0.0030000000000427
100
AcDbArc
 50
270.0
 51
332.4611766504314
  0
LINE
  5
1B4C
330
1F
100
AcDbEntity
  8
0
  6
Continuous
 62
     7
370
    15
100
AcDbLine
 10
0.5986591378774746
 20
0.0056176178069602
 30
0.0
 11
0.600449802708096
 21
0.0090517714644598
 31
0.0
  0
LINE
  5
1B4D
330
1F
100
AcDbEntity
  8
0
  6
Continuous
 62
     7
370
    15
100
AcDbLine
 10
0.1338010857815066
 20
0.0090517714644598
 30
0.0
 11
0.1355917506121858
 21
0.0056176178069602
 31
0.0
  0
LINE
  5
1B4E
330
1F
100
AcDbEntity
  8
0
  6
Continuous
 62
     7
370
    15
100
AcDbLine
 10
0.6338613651508773
 20
0.07334498279047
 30
0.0
 11
0.6355829197434402
 21
0.0766466367301994
 31
0.0
  0
LINE
  5
1B4F
330
1F
100
AcDbEntity
  8
0
  6
Continuous
 62
     7
370
    15
100
AcDbLine
 10
0.0986679687461918
 20
0.0766466367301994
 30
0.0
 11
0.1003895233387271
 21
0.07334498279047
 31
0.0
  0
LINE
  5
1B50
330
1F
100
AcDbEntity
  8
0
  6
Continuous
 62
     7
370
    15
100
AcDbLine
 10
0.3617669821359637
 20
0.0805858920176909
 30
0.0
 11
0.1019961214345602
 21
0.0805981103705094
 31
0.0
  0
LINE
  5
1B51
330
1F
100
AcDbEntity
  8
0
  6
Continuous
 62
     7
370
    15
100
AcDbLine
 10
0.6322547670550686
 20
0.0805981103704862
 30
0.0
 11
0.372766982135931
 21
0.080598110370401
 31
0.0
  0
ARC
  5
1B52
330
1F
100
AcDbEntity
  8
0
  6
Continuous
 62
     7
370
    15
100
AcDbCircle
 10
0.1019961214345602
 20
0.0769076049541795
 30
0.0
 40
0.0036905054163299
100
AcDbArc
 50
90.0
 51
156.882207656661
  0
ARC
  5
1B53
330
1F
100
AcDbEntity
  8
0
  6
Continuous
 62
     7
370
    15
100
AcDbCircle
 10
0.6322547670551002
 20
0.0769076049541795
 30
0.0
 40
0.0036905054163067
100
AcDbArc
 50
23.11779234382881
 51
90.0000000004904
  0
ARC
  5
1B54
330
1F
100
AcDbEntity
  8
0
  6
Continuous
 62
     7
370
    15
100
AcDbCircle
 10
0.100441364247992
 20
0.077571335813241
 30
0.0
 40
0.0019999999999875
100
AcDbArc
 50
156.8822076575205
 51
207.5388233504647
  0
ARC
  5
1B55
330
1F
100
AcDbEntity
  8
0
  6
Continuous
 62
     7
370
    15
100
AcDbCircle
 10
0.6338095242416679
 20
0.077571335813241
 30
0.0
 40
0.0019999999999966
100
AcDbArc
 50
332.4611766513943
 51
23.117792344375
  0
LINE
  5
1B56
330
1F
100
AcDbEntity
  8
0
  6
Continuous
 62
     7
370
    15
100
AcDbLine
 10
0.0671254442448019
 20
0.046585892017811
 30
0.0
 11
0.0671254442448019
 21
0.0165858920178401
 31
0.0
  0
LINE
  5
1B57
330
1F
100
AcDbEntity
  8
0
  6
Continuous
 62
     7
370
    15
100
AcDbLine
 10
0.667125444244802
 20
0.0165858920178401
 30
0.0
 11
0.667125444244802
 21
0.046585892017811
 31
0.0
  0
POINT
  5
1B58
330
1F
100
AcDbEntity
  8
0
  6
Continuous
 62
     7
370
    15
100
AcDbPoint
 10
0.0986019650108079
 20
0.0783565812820601
 30
0.0
  0
POINT
  5
1B59
330
1F
100
AcDbEntity
  8
0
  6
Continuous
 62
     7
370
    15
100
AcDbPoint
 10
0.1386606153084033
 20
0.0040326459221961
 30
0.0
  0
POINT
  5
1B5A
330
1F
100
AcDbEntity
  8
0
  6
Continuous
 62
     7
370
    15
100
AcDbPoint
 10
0.0671254442448019
 20
0.046585892017811
 30
0.0
  0
POINT
  5
1B5B
330
1F
100
AcDbEntity
  8
0
  6
Continuous
 62
     7
370
    15
100
AcDbPoint
 10
0.667125444244802
 20
0.046585892017811
 30
0.0
  0
LINE
  5
1B5C
330
1F
100
AcDbEntity
  8
0
  6
Continuous
 62
     7
370
    15
100
AcDbLine
 10
0.1003895233387271
 20
0.07334498279047
 30
0.0
 11
0.1142955487778545
 21
0.046585892017811
 31
0.0
  0
LINE
  5
1B5D
330
1F
100
AcDbEntity
  8
0
  6
Continuous
 62
     7
370
    15
100
AcDbLine
 10
0.6338613651508773
 20
0.07334498279047
 30
0.0
 11
0.6199553397117488
 21
0.046585892017811
 31
0.0
  0
LINE
  5
1B5E
330
1F
100
AcDbEntity
  8
0
  6
Continuous
 62
     7
370
    15
100
AcDbLine
 10
0.1298857931070707
 20
0.0165858920178401
 30
0.0
 11
0.1338010857815066
 21
0.0090517714644598
 31
0.0
  0
LINE
  5
1B5F
330
1F
100
AcDbEntity
  8
0
  6
Continuous
 62
     7
370
    15
100
AcDbLine
 10
0.6043650953825319
 20
0.0165858920178401
 30
0.0
 11
0.600449802708096
 21
0.0090517714644598
 31
0.0
  0
LINE
  5
1B60
330
1F
100
AcDbEntity
  8
0
  6
Continuous
 62
     7
370
    15
100
AcDbLine
 10
0.3607669821359305
 20
0.0891716784552994
 30
0.0
 11
0.3737669821359064
 21
0.0891716784552994
 31
0.0
  0
LINE
  5
1B61
330
1F
100
AcDbEntity
  8
0
  6
Continuous
 62
     7
370
    15
100
AcDbLine
 10
0.0767068727621687
 20
0.0905858026517007
 30
0.0
 11
0.087706872762136
 21
0.0905858026517007
 31
0.0
  0
LINE
  5
1B62
330
1F
100
AcDbEntity
  8
0
  6
Continuous
 62
     7
370
    15
100
AcDbLine
 10
0.0767068727621687
 20
0.0815858026518016
 30
0.0
 11
0.0757068727621355
 21
0.0815858026518016
 31
0.0
  0
LINE
  5
1B63
330
1F
100
AcDbEntity
  8
0
  6
Continuous
 62
     7
370
    15
100
AcDbLine
 10
0.0887068727621114
 20
0.0815858026518016
 30
0.0
 11
0.087706872762136
 21
0.0815858026518016
 31
0.0
  0
LINE
  5
1B64
330
1F
100
AcDbEntity
  8
0
  6
Continuous
 62
     7
370
    15
100
AcDbLine
 10
0.0767068727621687
 20
0.0815858026518016
 30
0.0
 11
0.0797068727621262
 21
0.0815858026518016
 31
0.0
  0
LINE
  5
1B65
330
1F
100
AcDbEntity
  8
0
  6
Continuous
 62
     7
370
    15
100
AcDbLine
 10
0.0767068727621687
 20
0.0805858026517115
 30
0.0
 11
0.0767068727621687
 21
0.0815858026518016
 31
0.0
  0
LINE
  5
1B66
330
1F
100
AcDbEntity
  8
0
  6
Continuous
 62
     7
370
    15
100
AcDbLine
 10
0.0847068727621216
 20
0.0815858026518016
 30
0.0
 11
0.0797068727621262
 21
0.0815858026518016
 31
0.0
  0
LINE
  5
1B67
330
1F
100
AcDbEntity
  8
0
  6
Continuous
 62
     7
370
    15
100
AcDbLine
 10
0.0847068727621216
 20
0.0815858026518016
 30
0.0
 11
0.087706872762136
 21
0.0815858026518016
 31
0.0
  0
LINE
  5
1B68
330
1F
100
AcDbEntity
  8
0
  6
Continuous
 62
     7
370
    15
100
AcDbLine
 10
0.087706872762136
 20
0.0815858026518016
 30
0.0
 11
0.087706872762136
 21
0.0805858026517115
 31
0.0
  0
LINE
  5
1B69
330
1F
100
AcDbEntity
  8
0
  6
Continuous
 62
     7
370
    15
100
AcDbLine
 10
0.087706872762136
 20
0.0792649866264999
 30
0.0
 11
0.087706872762136
 21
0.0767850613723003
 31
0.0
  0
LINE
  5
1B6A
330
1F
100
AcDbEntity
  8
0
  6
Continuous
 62
     7
370
    15
100
AcDbLine
 10
0.0767068727621687
 20
0.0792649866264999
 30
0.0
 11
0.0767068727621687
 21
0.0767850613723003
 31
0.0
  0
ARC
  5
1B6B
330
1F
100
AcDbEntity
  8
0
  6
Continuous
 62
     7
370
    15
100
AcDbCircle
 10
0.0793875167654174
 20
0.0767959845095111
 30
0.0
 40
0.0026806662290849
100
AcDbArc
 50
180.2334727241798
 51
215.5635555537071
  0
ARC
  5
1B6C
330
1F
100
AcDbEntity
  8
0
  6
Continuous
 62
     7
370
    15
100
AcDbCircle
 10
0.0850839156032102
 20
0.0767856894986578
 30
0.0
 40
0.0026229572043738
100
AcDbArc
 50
324.0349515214392
 51
359.9862750164083
  0
LINE
  5
1B6D
330
1F
100
AcDbEntity
  8
0
  6
Continuous
 62
     7
370
    15
100
AcDbLine
 10
0.087706872762136
 20
0.0795858026517316
 30
0.0
 11
0.087706872762136
 21
0.0792649866264999
 31
0.0
  0
LINE
  5
1B6E
330
1F
100
AcDbEntity
  8
0
  6
Continuous
 62
     7
370
    15
100
AcDbLine
 10
0.0767068727621687
 20
0.0795858026517316
 30
0.0
 11
0.0767068727621687
 21
0.0792649866264999
 31
0.0
  0
LINE
  5
1B6F
330
1F
100
AcDbEntity
  8
0
  6
Continuous
 62
     7
370
    15
100
AcDbLine
 10
0.087706872762136
 20
0.0795858026517316
 30
0.0
 11
0.0847068727621216
 21
0.0795858026517316
 31
0.0
  0
LINE
  5
1B70
330
1F
100
AcDbEntity
  8
0
  6
Continuous
 62
     7
370
    15
100
AcDbLine
 10
0.087706872762136
 20
0.0805858026517115
 30
0.0
 11
0.087706872762136
 21
0.0795858026517316
 31
0.0
  0
LINE
  5
1B71
330
1F
100
AcDbEntity
  8
0
  6
Continuous
 62
     7
370
    15
100
AcDbLine
 10
0.0767068727621687
 20
0.0795858026517316
 30
0.0
 11
0.0767068727621687
 21
0.0805858026517115
 31
0.0
  0
LINE
  5
1B72
330
1F
100
AcDbEntity
  8
0
  6
Continuous
 62
     7
370
    15
100
AcDbLine
 10
0.0797068727621262
 20
0.0795858026517316
 30
0.0
 11
0.0767068727621687
 21
0.0795858026517316
 31
0.0
  0
LINE
  5
1B73
330
1F
100
AcDbEntity
  8
0
  6
Continuous
 62
     7
370
    15
100
AcDbLine
 10
0.0847068727621216
 20
0.0795858026517316
 30
0.0
 11
0.0797068727621262
 21
0.0795858026517316
 31
0.0
  0
LINE
  5
1B74
330
1F
100
AcDbEntity
  8
0
  6
Continuous
 62
     7
370
    15
100
AcDbLine
 10
0.0872068727621202
 20
0.0485858026519016
 30
0.0
 11
0.0772068727621285
 21
0.0485858026519016
 31
0.0
  0
LINE
  5
1B75
330
1F
100
AcDbEntity
  8
0
  6
Continuous
 62
     7
370
    15
100
AcDbLine
 10
0.0767068727621687
 20
0.0905858026517007
 30
0.0
 11
0.0759997659809766
 21
0.0898786958705103
 31
0.0
  0
LINE
  5
1B76
330
1F
100
AcDbEntity
  8
0
  6
Continuous
 62
     7
370
    15
100
AcDbLine
 10
0.0884139795433281
 20
0.0898786958705103
 30
0.0
 11
0.087706872762136
 21
0.0905858026517007
 31
0.0
  0
LINE
  5
1B77
330
1F
100
AcDbEntity
  8
0
  6
Continuous
 62
     7
370
    15
100
AcDbLine
 10
0.0757068727621355
 20
0.08917158908932
 30
0.0
 11
0.0757068727621355
 21
0.0815858026518016
 31
0.0
  0
LINE
  5
1B78
330
1F
100
AcDbEntity
  8
0
  6
Continuous
 62
     7
370
    15
100
AcDbLine
 10
0.0887068727621114
 20
0.0815858026518016
 30
0.0
 11
0.0887068727621114
 21
0.08917158908932
 31
0.0
  0
ARC
  5
1B79
330
1F
100
AcDbEntity
  8
0
  6
Continuous
 62
     7
370
    15
100
AcDbCircle
 10
0.087706872762136
 20
0.08917158908932
 30
0.0
 40
0.0010000000000048
100
AcDbArc
 50
0.0
 51
45.0
  0
ARC
  5
1B7A
330
1F
100
AcDbEntity
  8
0
  6
Continuous
 62
     7
370
    15
100
AcDbCircle
 10
0.0767068727621687
 20
0.08917158908932
 30
0.0
 40
0.0010000000000079
100
AcDbArc
 50
134.9999999999994
 51
179.9999999999994
  0
LINE
  5
1B7B
330
1F
100
AcDbEntity
  8
0
  6
Continuous
 62
     7
370
    15
100
AcDbLine
 10
0.0782068725721625
 20
0.0485858019876312
 30
0.0
 11
0.0782068725721625
 21
0.04658580352233
 31
0.0
  0
LINE
  5
1B7C
330
1F
100
AcDbEntity
  8
0
  6
Continuous
 62
     7
370
    15
100
AcDbLine
 10
0.0862068729521421
 20
0.04658580352233
 30
0.0
 11
0.0862068729521421
 21
0.0485858019876312
 31
0.0
  0
LINE
  5
1B7D
330
1F
100
AcDbEntity
  8
0
  6
Continuous
 62
     7
370
    15
100
AcDbLine
 10
0.077206872873911
 20
0.0795858014809917
 30
0.0
 11
0.0772068727621285
 21
0.0485858026519016
 31
0.0
  0
LINE
  5
1B7E
330
1F
100
AcDbEntity
  8
0
  6
Continuous
 62
     7
370
    15
100
AcDbLine
 10
0.0872068727621202
 20
0.0485858026519016
 30
0.0
 11
0.0872068726503652
 21
0.0671028454291617
 31
0.0
  0
LINE
  5
1B7F
330
1F
100
AcDbEntity
  8
0
  6
Continuous
 62
     7
370
    15
100
AcDbLine
 10
0.0872068726503652
 20
0.0671028454291617
 30
0.0
 11
0.0872068726503652
 21
0.0795858014809917
 31
0.0
  0
LINE
  5
1B80
330
1F
100
AcDbEntity
  8
0
  6
Continuous
 62
     7
370
    15
100
AcDbLine
 10
0.0757068727621355
 20
0.08917158908932
 30
0.0
 11
0.0887068727621114
 21
0.08917158908932
 31
0.0
  0
LINE
  5
1B81
330
1F
100
AcDbEntity
  8
0
  6
Continuous
 62
     7
370
    15
100
AcDbLine
 10
0.1015947283858216
 20
0.0805762169326238
 30
0.0
 11
0.087706872762136
 21
0.0805858026517115
 31
0.0
  0
LINE
  5
1B82
330
1F
100
AcDbEntity
  8
0
  6
Continuous
 62
     7
370
    15
100
AcDbLine
 10
0.0716614490784779
 20
0.0805980224597215
 30
0.0
 11
0.0767068727621687
 21
0.0805858026517115
 31
0.0
  0
LINE
  5
1B83
330
1F
100
AcDbEntity
  8
0
  6
Continuous
 62
     7
370
    15
100
AcDbLine
 10
0.6625894598808382
 20
0.0815858026518016
 30
0.0
 11
0.6610894598808168
 21
0.0815858026518016
 31
0.0
  0
LINE
  5
1B84
330
1F
100
AcDbEntity
  8
0
  6
Continuous
 62
     7
370
    15
100
AcDbLine
 10
0.6571612566505289
 20
0.0815858026518016
 30
0.0
 11
0.6610894598808168
 21
0.0815858026518016
 31
0.0
  0
LINE
  5
1B85
330
1F
100
AcDbEntity
  8
0
  6
Continuous
 62
     7
370
    15
100
AcDbLine
 10
0.6359747231710637
 20
0.0815858026518016
 30
0.0
 11
0.6511612566505287
 21
0.0815858026518016
 31
0.0
  0
ARC
  5
1B86
330
1F
100
AcDbEntity
  8
0
  6
Continuous
 62
     7
370
    15
100
AcDbCircle
 10
0.6304976903583006
 20
0.0784093600236401
 30
0.0
 40
0.003176524802526
100
AcDbArc
 50
90.41423508424286
 51
136.4480807273165
  0
LINE
  5
1B87
330
1F
100
AcDbEntity
  8
0
  6
Continuous
 62
     7
370
    15
100
AcDbLine
 10
0.6359747231710637
 20
0.0815858026518016
 30
0.0
 11
0.6304747231710517
 21
0.0815858026518016
 31
0.0
  0
LINE
  5
1B88
330
1F
100
AcDbEntity
  8
0
  6
Continuous
 62
     7
370
    15
100
AcDbLine
 10
0.6625894598808382
 20
0.0815858026518016
 30
0.0
 11
0.6625894394111536
 21
0.0805980224597215
 31
0.0
  0
ARC
  5
1B89
330
1F
100
AcDbEntity
  8
0
  6
Continuous
 62
     7
370
    15
100
AcDbCircle
 10
0.6338095242416399
 20
0.077571335813241
 30
0.0
 40
0.0019999999999874
100
AcDbArc
 50
332.4611766495337
 51
23.11779234247791
  0
POINT
  5
1B8A
330
1F
100
AcDbEntity
  8
0
  6
Continuous
 62
     7
370
    15
100
AcDbPoint
 10
0.6356489234788241
 20
0.0783565812820601
 30
0.0
  0
LINE
  5
1B8B
330
1F
100
AcDbEntity
  8
0
  6
Continuous
 62
     7
370
    15
100
AcDbLine
 10
0.6575440157274628
 20
0.0905858026517007
 30
0.0
 11
0.6465440157274955
 21
0.0905858026517007
 31
0.0
  0
LINE
  5
1B8C
330
1F
100
AcDbEntity
  8
0
  6
Continuous
 62
     7
370
    15
100
AcDbLine
 10
0.6575440157274628
 20
0.0815858026518016
 30
0.0
 11
0.658544015727496
 21
0.0815858026518016
 31
0.0
  0
LINE
  5
1B8D
330
1F
100
AcDbEntity
  8
0
  6
Continuous
 62
     7
370
    15
100
AcDbLine
 10
0.6455440157275201
 20
0.0815858026518016
 30
0.0
 11
0.6465440157274955
 21
0.0815858026518016
 31
0.0
  0
LINE
  5
1B8E
330
1F
100
AcDbEntity
  8
0
  6
Continuous
 62
     7
370
    15
100
AcDbLine
 10
0.6575440157274628
 20
0.0815858026518016
 30
0.0
 11
0.6545440157275053
 21
0.0815858026518016
 31
0.0
  0
LINE
  5
1B8F
330
1F
100
AcDbEntity
  8
0
  6
Continuous
 62
     7
370
    15
100
AcDbLine
 10
0.6575440157274628
 20
0.0805858026517115
 30
0.0
 11
0.6575440157274628
 21
0.0815858026518016
 31
0.0
  0
LINE
  5
1B90
330
1F
100
AcDbEntity
  8
0
  6
Continuous
 62
     7
370
    15
100
AcDbLine
 10
0.6495440157275099
 20
0.0815858026518016
 30
0.0
 11
0.6545440157275053
 21
0.0815858026518016
 31
0.0
  0
LINE
  5
1B91
330
1F
100
AcDbEntity
  8
0
  6
Continuous
 62
     7
370
    15
100
AcDbLine
 10
0.6495440157275099
 20
0.0815858026518016
 30
0.0
 11
0.6465440157274955
 21
0.0815858026518016
 31
0.0
  0
LINE
  5
1B92
330
1F
100
AcDbEntity
  8
0
  6
Continuous
 62
     7
370
    15
100
AcDbLine
 10
0.6465440157274955
 20
0.0815858026518016
 30
0.0
 11
0.6465440157274955
 21
0.0805858026517115
 31
0.0
  0
LINE
  5
1B93
330
1F
100
AcDbEntity
  8
0
  6
Continuous
 62
     7
370
    15
100
AcDbLine
 10
0.6465440157274955
 20
0.0792649866264999
 30
0.0
 11
0.6465440157274955
 21
0.0767850613723003
 31
0.0
  0
LINE
  5
1B94
330
1F
100
AcDbEntity
  8
0
  6
Continuous
 62
     7
370
    15
100
AcDbLine
 10
0.6575440157274628
 20
0.0792649866264999
 30
0.0
 11
0.6575440157274628
 21
0.0767850613723003
 31
0.0
  0
ARC
  5
1B95
330
1F
100
AcDbEntity
  8
0
  6
Continuous
 62
     7
370
    15
100
AcDbCircle
 10
0.654863371724214
 20
0.0767959845095111
 30
0.0
 40
0.002680666229085
100
AcDbArc
 50
324.4364444462952
 51
359.7665272758226
  0
ARC
  5
1B96
330
1F
100
AcDbEntity
  8
0
  6
Continuous
 62
     7
370
    15
100
AcDbCircle
 10
0.6491669728864216
 20
0.0767856894986578
 30
0.0
 40
0.0026229572043736
100
AcDbArc
 50
180.0137249835916
 51
215.9650484785607
  0
LINE
  5
1B97
330
1F
100
AcDbEntity
  8
0
  6
Continuous
 62
     7
370
    15
100
AcDbLine
 10
0.6465440157274955
 20
0.0795858026517316
 30
0.0
 11
0.6465440157274955
 21
0.0792649866264999
 31
0.0
  0
LINE
  5
1B98
330
1F
100
AcDbEntity
  8
0
  6
Continuous
 62
     7
370
    15
100
AcDbLine
 10
0.6575440157274628
 20
0.0795858026517316
 30
0.0
 11
0.6575440157274628
 21
0.0792649866264999
 31
0.0
  0
LINE
  5
1B99
330
1F
100
AcDbEntity
  8
0
  6
Continuous
 62
     7
370
    15
100
AcDbLine
 10
0.6465440157274955
 20
0.0795858026517316
 30
0.0
 11
0.6495440157275099
 21
0.0795858026517316
 31
0.0
  0
LINE
  5
1B9A
330
1F
100
AcDbEntity
  8
0
  6
Continuous
 62
     7
370
    15
100
AcDbLine
 10
0.6465440157274955
 20
0.0805858026517115
 30
0.0
 11
0.6465440157274955
 21
0.0795858026517316
 31
0.0
  0
LINE
  5
1B9B
330
1F
100
AcDbEntity
  8
0
  6
Continuous
 62
     7
370
    15
100
AcDbLine
 10
0.6575440157274628
 20
0.0795858026517316
 30
0.0
 11
0.6575440157274628
 21
0.0805858026517115
 31
0.0
  0
LINE
  5
1B9C
330
1F
100
AcDbEntity
  8
0
  6
Continuous
 62
     7
370
    15
100
AcDbLine
 10
0.6545440157275053
 20
0.0795858026517316
 30
0.0
 11
0.6575440157274628
 21
0.0795858026517316
 31
0.0
  0
LINE
  5
1B9D
330
1F
100
AcDbEntity
  8
0
  6
Continuous
 62
     7
370
    15
100
AcDbLine
 10
0.6495440157275099
 20
0.0795858026517316
 30
0.0
 11
0.6545440157275053
 21
0.0795858026517316
 31
0.0
  0
LINE
  5
1B9E
330
1F
100
AcDbEntity
  8
0
  6
Continuous
 62
     7
370
    15
100
AcDbLine
 10
0.6470440157275112
 20
0.0485858026519016
 30
0.0
 11
0.657044015727503
 21
0.0485858026519016
 31
0.0
  0
LINE
  5
1B9F
330
1F
100
AcDbEntity
  8
0
  6
Continuous
 62
     7
370
    15
100
AcDbLine
 10
0.6575440157274628
 20
0.0905858026517007
 30
0.0
 11
0.6582511225086549
 21
0.0898786958705103
 31
0.0
  0
LINE
  5
1BA0
330
1F
100
AcDbEntity
  8
0
  6
Continuous
 62
     7
370
    15
100
AcDbLine
 10
0.6458369089463034
 20
0.0898786958705103
 30
0.0
 11
0.6465440157274955
 21
0.0905858026517007
 31
0.0
  0
LINE
  5
1BA1
330
1F
100
AcDbEntity
  8
0
  6
Continuous
 62
     7
370
    15
100
AcDbLine
 10
0.658544015727496
 20
0.08917158908932
 30
0.0
 11
0.658544015727496
 21
0.0815858026518016
 31
0.0
  0
LINE
  5
1BA2
330
1F
100
AcDbEntity
  8
0
  6
Continuous
 62
     7
370
    15
100
AcDbLine
 10
0.6455440157275201
 20
0.0815858026518016
 30
0.0
 11
0.6455440157275201
 21
0.08917158908932
 31
0.0
  0
ARC
  5
1BA3
330
1F
100
AcDbEntity
  8
0
  6
Continuous
 62
     7
370
    15
100
AcDbCircle
 10
0.6465440157274955
 20
0.08917158908932
 30
0.0
 40
0.0010000000000045
100
AcDbArc
 50
134.9999999999809
 51
179.9999999999809
  0
ARC
  5
1BA4
330
1F
100
AcDbEntity
  8
0
  6
Continuous
 62
     7
370
    15
100
AcDbCircle
 10
0.6575440157274628
 20
0.08917158908932
 30
0.0
 40
0.0010000000000083
100
AcDbArc
 50
0.0000000000007951
 51
45.0000000000008
  0
LINE
  5
1BA5
330
1F
100
AcDbEntity
  8
0
  6
Continuous
 62
     7
370
    15
100
AcDbLine
 10
0.656044015917469
 20
0.0485858019876312
 30
0.0
 11
0.656044015917469
 21
0.04658580352233
 31
0.0
  0
LINE
  5
1BA6
330
1F
100
AcDbEntity
  8
0
  6
Continuous
 62
     7
370
    15
100
AcDbLine
 10
0.6480440155374894
 20
0.04658580352233
 30
0.0
 11
0.6480440155374894
 21
0.0485858019876312
 31
0.0
  0
LINE
  5
1BA7
330
1F
100
AcDbEntity
  8
0
  6
Continuous
 62
     7
370
    15
100
AcDbLine
 10
0.6570440156157205
 20
0.0795858014809917
 30
0.0
 11
0.657044015727503
 21
0.0485858026519016
 31
0.0
  0
LINE
  5
1BA8
330
1F
100
AcDbEntity
  8
0
  6
Continuous
 62
     7
370
    15
100
AcDbLine
 10
0.6470440157275112
 20
0.0485858026519016
 30
0.0
 11
0.6470440158392663
 21
0.0671028454291617
 31
0.0
  0
LINE
  5
1BA9
330
1F
100
AcDbEntity
  8
0
  6
Continuous
 62
     7
370
    15
100
AcDbLine
 10
0.6470440158392663
 20
0.0671028454291617
 30
0.0
 11
0.6470440158392663
 21
0.0795858014809917
 31
0.0
  0
LINE
  5
1BAA
330
1F
100
AcDbEntity
  8
0
  6
Continuous
 62
     7
370
    15
100
AcDbLine
 10
0.658544015727496
 20
0.08917158908932
 30
0.0
 11
0.6455440157275201
 21
0.08917158908932
 31
0.0
  0
LINE
  5
1BAB
330
1F
100
AcDbEntity
  8
0
  6
Continuous
 62
     7
370
    15
100
AcDbLine
 10
0.6326561601038103
 20
0.0805762169326238
 30
0.0
 11
0.6465440157274955
 21
0.0805858026517115
 31
0.0
  0
LINE
  5
1BAC
330
1F
100
AcDbEntity
  8
0
  6
Continuous
 62
     7
370
    15
100
AcDbLine
 10
0.6625894394111536
 20
0.0805980224597215
 30
0.0
 11
0.6575440157274628
 21
0.0805858026517115
 31
0.0
  0
ENDSEC
  0
SECTION
  2
OBJECTS
  0
DICTIONARY
  5
C
330
0
100
AcDbDictionary
281
     1
  3
ACAD_GROUP
350
D
  3
ACAD_IMAGE_VARS
350
1C00
  3
ACAD_LAYOUT
350
1A
  3
ACAD_MLINESTYLE
350
17
  3
ACAD_PLOTSETTINGS
350
19
  3
ACAD_PLOTSTYLENAME
350
E
  3
ACAD_SCALELIST
350
99
  3
AcDbVariableDictionary
350
59
  3
APPDATA
350
1BFF
  3
DWGPROPS
350
1C01
  0
DICTIONARY
  5
1BB5
330
10
100
AcDbDictionary
280
     1
281
     1
  3
ADSK_XREC_LAYER_RECONCILED
360
118E
  0
DICTIONARY
  5
1BB6
330
C1
100
AcDbDictionary
280
     1
281
     1
  3
ADSK_XREC_LAYER_RECONCILED
360
1190
  0
DICTIONARY
  5
1BB7
330
100
100
AcDbDictionary
280
     1
281
     1
  3
ADSK_XREC_LAYER_RECONCILED
360
1192
  0
DICTIONARY
  5
1BB8
330
EE3
100
AcDbDictionary
280
     1
281
     1
  3
ADSK_XREC_LAYER_RECONCILED
360
1194
  0
DICTIONARY
  5
D
102
{ACAD_REACTORS
330
C
102
}
330
C
100
AcDbDictionary
281
     1
  0
RASTERVARIABLES
  5
1C00
102
{ACAD_REACTORS
330
C
102
}
330
C
100
AcDbRasterVariables
 90
        0
 70
     1
 71
     1
 72
     5
  0
DICTIONARY
  5
1A
102
{ACAD_REACTORS
330
C
102
}
330
C
100
AcDbDictionary
281
     1
  3
Layout1
350
74
  3
Layout2
350
BF
  3
Model
350
22
  0
DICTIONARY
  5
17
102
{ACAD_REACTORS
330
C
102
}
330
C
100
AcDbDictionary
281
     1
  3
Standard
350
18
  0
DICTIONARY
  5
19
102
{ACAD_REACTORS
330
C
102
}
330
C
100
AcDbDictionary
281
     1
  0
ACDBDICTIONARYWDFLT
  5
E
102
{ACAD_REACTORS
330
C
102
}
330
C
100
AcDbDictionary
281
     1
  3
Normal
350
F
100
AcDbDictionaryWithDefault
340
F
  0
DICTIONARY
  5
99
102
{ACAD_REACTORS
330
C
102
}
330
C
100
AcDbDictionary
281
     1
  3
A0
350
1D9
  3
A1
350
1DA
  3
A2
350
1DB
  3
A3
350
1DC
  3
A4
350
1DD
  3
A5
350
1DE
  3
A6
350
1DF
  3
A7
350
1E0
  3
A8
350
1E1
  3
A9
350
1E2
  3
B0
350
1E3
  3
B1
350
1E4
  3
B2
350
1E5
  3
B3
350
1E6
  3
B4
350
1E7
  3
B5
350
1E8
  3
B6
350
1E9
  3
B7
350
1EA
  3
B8
350
1EB
  3
B9
350
1EC
  3
C0
350
1ED
  3
C1
350
1EE
  3
C2
350
1EF
  3
C3
350
1F0
  3
C4
350
1F1
  3
C5
350
1F2
  3
C6
350
1F3
  3
C7
350
1F4
  3
C8
350
1F5
  3
C9
350
1F6
  3
D0
350
1F7
  3
D1
350
1F8
  3
D2
350
1F9
  0
DICTIONARY
  5
59
102
{ACAD_REACTORS
330
C
102
}
330
C
100
AcDbDictionary
281
     1
  3
CANNOSCALE
350
1C02
  3
DIMASSOC
350
1D7
  3
HIDETEXT
350
1D8
  0
DICTIONARY
  5
1BFF
102
{ACAD_REACTORS
330
C
102
}
330
C
100
AcDbDictionary
281
     1
  0
XRECORD
  5
1C01
102
{ACAD_REACTORS
330
C
102
}
330
C
100
AcDbXrecord
280
     1
  1
DWGPROPS COOKIE
  2

  3

  4

  6

  7

  8
ClaudiaR
  9

300
=
301
=
302
=
303
=
304
=
305
=
306
=
307
=
308
=
309
=
 40
0.0
 41
2453353.717125822
 42
2456377.550916262
  1

 90
        0
  0
XRECORD
  5
118E
102
{ACAD_REACTORS
330
1BB5
102
}
330
1BB5
100
AcDbXrecord
280
     1
290
     1
  0
XRECORD
  5
1190
102
{ACAD_REACTORS
330
1BB6
102
}
330
1BB6
100
AcDbXrecord
280
     1
290
     1
  0
XRECORD
  5
1192
102
{ACAD_REACTORS
330
1BB7
102
}
330
1BB7
100
AcDbXrecord
280
     1
290
     1
  0
XRECORD
  5
1194
102
{ACAD_REACTORS
330
1BB8
102
}
330
1BB8
100
AcDbXrecord
280
     1
290
     1
  0
LAYOUT
  5
74
102
{ACAD_REACTORS
330
1A
102
}
330
1A
100
AcDbPlotSettings
  1

  2
\\ADSCCNDC1\hq601xrx1
  4

  6

 40
0.0
 41
0.0
 42
0.0
 43
0.0
 44
0.0
 45
0.0
 46
0.0
 47
0.0
 48
0.0
 49
0.0
140
0.0
141
0.0
142
1.0
143
1.0
 70
   688
 72
     0
 73
     0
 74
     5
  7

 75
    16
147
1.0
148
0.0
149
0.0
100
AcDbLayout
  1
Layout1
 70
     1
 71
     1
 10
0.0
 20
0.0
 11
12.0
 21
9.0
 12
0.0
 22
0.0
 32
0.0
 14
0.0
 24
0.0
 34
0.0
 15
0.0
 25
0.0
 35
0.0
146
0.0
 13
0.0
 23
0.0
 33
0.0
 16
1.0
 26
0.0
 36
0.0
 17
0.0
 27
1.0
 37
0.0
 76
     0
330
73
  0
LAYOUT
  5
BF
102
{ACAD_REACTORS
330
1A
102
}
330
1A
100
AcDbPlotSettings
  1

  2
none_device
  4
Sun_Hi-Res_(1280.00_x_1600.00_Pixels)
  6

 40
0.0
 41
0.0
 42
0.0
 43
0.0
 44
1280.0
 45
1600.0
 46
0.0
 47
0.0
 48
0.0
 49
0.0
140
0.0
141
0.0
142
1.0
143
1.0
 70
   544
 72
     2
 73
     0
 74
     5
  7

 75
    16
147
1.0
148
0.0
149
0.0
100
AcDbLayout
  1
Layout2
 70
     1
 71
     2
 10
0.0
 20
0.0
 11
12.0
 21
9.0
 12
0.0
 22
0.0
 32
0.0
 14
1.000000000000000E+20
 24
1.000000000000000E+20
 34
1.000000000000000E+20
 15
-1.000000000000000E+20
 25
-1.000000000000000E+20
 35
-1.000000000000000E+20
146
0.0
 13
0.0
 23
0.0
 33
0.0
 16
1.0
 26
0.0
 36
0.0
 17
0.0
 27
1.0
 37
0.0
 76
     0
330
BE
  0
LAYOUT
  5
22
102
{ACAD_REACTORS
330
1A
102
}
330
1A
100
AcDbPlotSettings
  1

  2
none_device
  4
Sun_Hi-Res_(1280.00_x_1600.00_Pixels)
  6

 40
6.349999904632567
 41
6.349999904632567
 42
6.350006103515625
 43
6.350006103515625
 44
1280.0
 45
1600.0
 46
0.0
 47
0.0
 48
-0.4851000000000001
 49
-0.9482000000000002
140
0.9840000000000002
141
0.9620000000000002
142
1.0
143
0.001193875
 70
 11956
 72
     2
 73
     0
 74
     4
  7

 75
     0
147
0.28088241027059
148
0.1311165230791651
149
0.096403374003771
100
AcDbLayout
  1
Model
 70
     1
 71
     0
 10
0.0
 20
0.0
 11
12.0
 21
9.0
 12
0.0
 22
0.0
 32
0.0
 14
-0.3511977873369376
 24
-0.7881403552270909
 34
0.0
 15
0.6676012784149675
 25
0.8031190184812543
 35
0.0
146
0.0
 13
0.0
 23
0.0
 33
0.0
 16
1.0
 26
0.0
 36
0.0
 17
0.0
 27
1.0
 37
0.0
 76
     0
330
1F
331
97
  0
MLINESTYLE
  5
18
102
{ACAD_REACTORS
330
17
102
}
330
17
100
AcDbMlineStyle
  2
Standard
 70
     0
  3

 62
   256
 51
90.0
 52
90.0
 71
     2
 49
0.5
 62
   256
  6
BYLAYER
 49
-0.5
 62
   256
  6
BYLAYER
  0
ACDBPLACEHOLDER
  5
F
102
{ACAD_REACTORS
330
E
102
}
330
E
  0
SCALE
  5
1D9
102
{ACAD_REACTORS
330
99
102
}
330
99
100
AcDbScale
 70
     0
300
1:1
140
1.0
141
1.0
290
     1
  0
SCALE
  5
1DA
102
{ACAD_REACTORS
330
99
102
}
330
99
100
AcDbScale
 70
     0
300
1:2
140
1.0
141
2.0
290
     0
  0
SCALE
  5
1DB
102
{ACAD_REACTORS
330
99
102
}
330
99
100
AcDbScale
 70
     0
300
1:4
140
1.0
141
4.0
290
     0
  0
SCALE
  5
1DC
102
{ACAD_REACTORS
330
99
102
}
330
99
100
AcDbScale
 70
     0
300
1:5
140
1.0
141
5.0
290
     0
  0
SCALE
  5
1DD
102
{ACAD_REACTORS
330
99
102
}
330
99
100
AcDbScale
 70
     0
300
1:8
140
1.0
141
8.0
290
     0
  0
SCALE
  5
1DE
102
{ACAD_REACTORS
330
99
102
}
330
99
100
AcDbScale
 70
     0
300
1:10
140
1.0
141
10.0
290
     0
  0
SCALE
  5
1DF
102
{ACAD_REACTORS
330
99
102
}
330
99
100
AcDbScale
 70
     0
300
1:16
140
1.0
141
16.0
290
     0
  0
SCALE
  5
1E0
102
{ACAD_REACTORS
330
99
102
}
330
99
100
AcDbScale
 70
     0
300
1:20
140
1.0
141
20.0
290
     0
  0
SCALE
  5
1E1
102
{ACAD_REACTORS
330
99
102
}
330
99
100
AcDbScale
 70
     0
300
1:30
140
1.0
141
30.0
290
     0
  0
SCALE
  5
1E2
102
{ACAD_REACTORS
330
99
102
}
330
99
100
AcDbScale
 70
     0
300
1:40
140
1.0
141
40.0
290
     0
  0
SCALE
  5
1E3
102
{ACAD_REACTORS
330
99
102
}
330
99
100
AcDbScale
 70
     0
300
1:50
140
1.0
141
50.0
290
     0
  0
SCALE
  5
1E4
102
{ACAD_REACTORS
330
99
102
}
330
99
100
AcDbScale
 70
     0
300
1:100
140
1.0
141
100.0
290
     0
  0
SCALE
  5
1E5
102
{ACAD_REACTORS
330
99
102
}
330
99
100
AcDbScale
 70
     0
300
2:1
140
2.0
141
1.0
290
     0
  0
SCALE
  5
1E6
102
{ACAD_REACTORS
330
99
102
}
330
99
100
AcDbScale
 70
     0
300
4:1
140
4.0
141
1.0
290
     0
  0
SCALE
  5
1E7
102
{ACAD_REACTORS
330
99
102
}
330
99
100
AcDbScale
 70
     0
300
8:1
140
8.0
141
1.0
290
     0
  0
SCALE
  5
1E8
102
{ACAD_REACTORS
330
99
102
}
330
99
100
AcDbScale
 70
     0
300
10:1
140
10.0
141
1.0
290
     0
  0
SCALE
  5
1E9
102
{ACAD_REACTORS
330
99
102
}
330
99
100
AcDbScale
 70
     0
300
100:1
140
100.0
141
1.0
290
     0
  0
SCALE
  5
1EA
102
{ACAD_REACTORS
330
99
102
}
330
99
100
AcDbScale
 70
     0
300
1/128" = 1'-0"
140
0.0078125
141
12.0
290
     0
  0
SCALE
  5
1EB
102
{ACAD_REACTORS
330
99
102
}
330
99
100
AcDbScale
 70
     0
300
1/64" = 1'-0"
140
0.015625
141
12.0
290
     0
  0
SCALE
  5
1EC
102
{ACAD_REACTORS
330
99
102
}
330
99
100
AcDbScale
 70
     0
300
1/32" = 1'-0"
140
0.03125
141
12.0
290
     0
  0
SCALE
  5
1ED
102
{ACAD_REACTORS
330
99
102
}
330
99
100
AcDbScale
 70
     0
300
1/16" = 1'-0"
140
0.0625
141
12.0
290
     0
  0
SCALE
  5
1EE
102
{ACAD_REACTORS
330
99
102
}
330
99
100
AcDbScale
 70
     0
300
3/32" = 1'-0"
140
0.09375
141
12.0
290
     0
  0
SCALE
  5
1EF
102
{ACAD_REACTORS
330
99
102
}
330
99
100
AcDbScale
 70
     0
300
1/8" = 1'-0"
140
0.125
141
12.0
290
     0
  0
SCALE
  5
1F0
102
{ACAD_REACTORS
330
99
102
}
330
99
100
AcDbScale
 70
     0
300
3/16" = 1'-0"
140
0.1875
141
12.0
290
     0
  0
SCALE
  5
1F1
102
{ACAD_REACTORS
330
99
102
}
330
99
100
AcDbScale
 70
     0
300
1/4" = 1'-0"
140
0.25
141
12.0
290
     0
  0
SCALE
  5
1F2
102
{ACAD_REACTORS
330
99
102
}
330
99
100
AcDbScale
 70
     0
300
3/8" = 1'-0"
140
0.375
141
12.0
290
     0
  0
SCALE
  5
1F3
102
{ACAD_REACTORS
330
99
102
}
330
99
100
AcDbScale
 70
     0
300
1/2" = 1'-0"
140
0.5
141
12.0
290
     0
  0
SCALE
  5
1F4
102
{ACAD_REACTORS
330
99
102
}
330
99
100
AcDbScale
 70
     0
300
3/4" = 1'-0"
140
0.75
141
12.0
290
     0
  0
SCALE
  5
1F5
102
{ACAD_REACTORS
330
99
102
}
330
99
100
AcDbScale
 70
     0
300
1" = 1'-0"
140
1.0
141
12.0
290
     0
  0
SCALE
  5
1F6
102
{ACAD_REACTORS
330
99
102
}
330
99
100
AcDbScale
 70
     0
300
1-1/2" = 1'-0"
140
1.5
141
12.0
290
     0
  0
SCALE
  5
1F7
102
{ACAD_REACTORS
330
99
102
}
330
99
100
AcDbScale
 70
     0
300
3" = 1'-0"
140
3.0
141
12.0
290
     0
  0
SCALE
  5
1F8
102
{ACAD_REACTORS
330
99
102
}
330
99
100
AcDbScale
 70
     0
300
6" = 1'-0"
140
6.0
141
12.0
290
     0
  0
SCALE
  5
1F9
102
{ACAD_REACTORS
330
99
102
}
330
99
100
AcDbScale
 70
     0
300
1'-0" = 1'-0"
140
12.0
141
12.0
290
     0
  0
DICTIONARYVAR
  5
1C02
102
{ACAD_REACTORS
330
59
102
}
330
59
100
DictionaryVariables
280
     0
  1
1:1
  0
DICTIONARYVAR
  5
1D7
102
{ACAD_REACTORS
330
59
102
}
330
59
100
DictionaryVariables
280
     0
  1
2
  0
DICTIONARYVAR
  5
1D8
102
{ACAD_REACTORS
330
59
102
}
330
59
100
DictionaryVariables
280
     0
  1
1
  0
ENDSEC
  0
EOF
