  0
SECTION
  2
HEADER
  9
$ACADVER
  1
AC1015
  9
$ACADMAINTVER
 70
     6
  9
$DWGCODEPAGE
  3
ANSI_1252
  9
$INSBASE
 10
0.0
 20
0.0
 30
0.0
  9
$EXTMIN
 10
-0.3493025536504581
 20
-1.393514370384444
 30
0.0
  9
$EXTMAX
 10
1.139322025340084
 20
0.8566575781878121
 30
0.0
  9
$LIMMIN
 10
0.0
 20
0.0
  9
$LIMMAX
 10
12.0
 20
9.0
  9
$ORTHOMODE
 70
     0
  9
$REGENMODE
 70
     1
  9
$FILLMODE
 70
     1
  9
$QTEXTMODE
 70
     0
  9
$MIRRTEXT
 70
     0
  9
$LTSCALE
 40
1.0
  9
$ATTMODE
 70
     1
  9
$TEXTSIZE
 40
0.2
  9
$TRACEWID
 40
0.05
  9
$TEXTSTYLE
  7
Standard
  9
$CLAYER
  8
0
  9
$CELTYPE
  6
ByLayer
  9
$CECOLOR
 62
   256
  9
$CELTSCALE
 40
1.0
  9
$DISPSILH
 70
     0
  9
$DIMSCALE
 40
1.0
  9
$DIMASZ
 40
0.1
  9
$DIMEXO
 40
0.02
  9
$DIMDLI
 40
0.38
  9
$DIMRND
 40
0.0
  9
$DIMDLE
 40
0.0
  9
$DIMEXE
 40
0.018
  9
$DIMTP
 40
0.0
  9
$DIMTM
 40
0.0
  9
$DIMTXT
 40
0.2
  9
$DIMCEN
 40
0.0
  9
$DIMTSZ
 40
0.0
  9
$DIMTOL
 70
     0
  9
$DIMLIM
 70
     0
  9
$DIMTIH
 70
     0
  9
$DIMTOH
 70
     0
  9
$DIMSE1
 70
     0
  9
$DIMSE2
 70
     0
  9
$DIMTAD
 70
     0
  9
$DIMZIN
 70
     0
  9
$DIMBLK
  1
NONE
  9
$DIMASO
 70
     1
  9
$DIMSHO
 70
     1
  9
$DIMPOST
  1

  9
$DIMAPOST
  1

  9
$DIMALT
 70
     0
  9
$DIMALTD
 70
     2
  9
$DIMALTF
 40
25.4
  9
$DIMLFAC
 40
1.0
  9
$DIMTOFL
 70
     0
  9
$DIMTVP
 40
0.0
  9
$DIMTIX
 70
     0
  9
$DIMSOXD
 70
     0
  9
$DIMSAH
 70
     0
  9
$DIMBLK1
  1

  9
$DIMBLK2
  1

  9
$DIMSTYLE
  2
S&C_cotas
  9
$DIMCLRD
 70
   256
  9
$DIMCLRE
 70
   256
  9
$DIMCLRT
 70
   256
  9
$DIMTFAC
 40
1.0
  9
$DIMGAP
 40
0.0
  9
$DIMJUST
 70
     0
  9
$DIMSD1
 70
     1
  9
$DIMSD2
 70
     1
  9
$DIMTOLJ
 70
     1
  9
$DIMTZIN
 70
     0
  9
$DIMALTZ
 70
     0
  9
$DIMALTTZ
 70
     0
  9
$DIMUPT
 70
     0
  9
$DIMDEC
 70
     0
  9
$DIMTDEC
 70
     0
  9
$DIMALTU
 70
     2
  9
$DIMALTTD
 70
     2
  9
$DIMTXSTY
  7
ARIAL
  9
$DIMAUNIT
 70
     0
  9
$DIMADEC
 70
     2
  9
$DIMALTRND
 40
0.0
  9
$DIMAZIN
 70
     0
  9
$DIMDSEP
 70
    46
  9
$DIMATFIT
 70
     3
  9
$DIMFRAC
 70
     0
  9
$DIMLDRBLK
  1
NONE
  9
$DIMLUNIT
 70
     2
  9
$DIMLWD
 70
    -2
  9
$DIMLWE
 70
    -2
  9
$DIMTMOVE
 70
     0
  9
$LUNITS
 70
     2
  9
$LUPREC
 70
     4
  9
$SKETCHINC
 40
0.1
  9
$FILLETRAD
 40
0.0
  9
$AUNITS
 70
     0
  9
$AUPREC
 70
     0
  9
$MENU
  1
.
  9
$ELEVATION
 40
0.0
  9
$PELEVATION
 40
0.0
  9
$THICKNESS
 40
0.0
  9
$LIMCHECK
 70
     0
  9
$CHAMFERA
 40
0.0
  9
$CHAMFERB
 40
0.0
  9
$CHAMFERC
 40
0.0
  9
$CHAMFERD
 40
0.0
  9
$SKPOLY
 70
     0
  9
$TDCREATE
 40
2453353.800459155
  9
$TDUCREATE
 40
2453353.717125822
  9
$TDUPDATE
 40
2456443.536759607
  9
$TDUUPDATE
 40
2456443.453426273
  9
$TDINDWG
 40
0.1974828241
  9
$TDUSRTIMER
 40
2456443.452818576
  9
$USRTIMER
 70
     1
  9
$ANGBASE
 50
0.0
  9
$ANGDIR
 70
     0
  9
$PDMODE
 70
     0
  9
$PDSIZE
 40
0.0
  9
$PLINEWID
 40
0.0
  9
$SPLFRAME
 70
     0
  9
$SPLINETYPE
 70
     6
  9
$SPLINESEGS
 70
     8
  9
$HANDSEED
  5
1FB5
  9
$SURFTAB1
 70
     6
  9
$SURFTAB2
 70
     6
  9
$SURFTYPE
 70
     6
  9
$SURFU
 70
     6
  9
$SURFV
 70
     6
  9
$UCSBASE
  2

  9
$UCSNAME
  2

  9
$UCSORG
 10
0.0
 20
0.0
 30
0.0
  9
$UCSXDIR
 10
1.0
 20
0.0
 30
0.0
  9
$UCSYDIR
 10
0.0
 20
1.0
 30
0.0
  9
$UCSORTHOREF
  2

  9
$UCSORTHOVIEW
 70
     0
  9
$UCSORGTOP
 10
0.0
 20
0.0
 30
0.0
  9
$UCSORGBOTTOM
 10
0.0
 20
0.0
 30
0.0
  9
$UCSORGLEFT
 10
0.0
 20
0.0
 30
0.0
  9
$UCSORGRIGHT
 10
0.0
 20
0.0
 30
0.0
  9
$UCSORGFRONT
 10
0.0
 20
0.0
 30
0.0
  9
$UCSORGBACK
 10
0.0
 20
0.0
 30
0.0
  9
$PUCSBASE
  2

  9
$PUCSNAME
  2

  9
$PUCSORG
 10
0.0
 20
0.0
 30
0.0
  9
$PUCSXDIR
 10
1.0
 20
0.0
 30
0.0
  9
$PUCSYDIR
 10
0.0
 20
1.0
 30
0.0
  9
$PUCSORTHOREF
  2

  9
$PUCSORTHOVIEW
 70
     0
  9
$PUCSORGTOP
 10
0.0
 20
0.0
 30
0.0
  9
$PUCSORGBOTTOM
 10
0.0
 20
0.0
 30
0.0
  9
$PUCSORGLEFT
 10
0.0
 20
0.0
 30
0.0
  9
$PUCSORGRIGHT
 10
0.0
 20
0.0
 30
0.0
  9
$PUCSORGFRONT
 10
0.0
 20
0.0
 30
0.0
  9
$PUCSORGBACK
 10
0.0
 20
0.0
 30
0.0
  9
$USERI1
 70
     0
  9
$USERI2
 70
     0
  9
$USERI3
 70
     0
  9
$USERI4
 70
     0
  9
$USERI5
 70
     0
  9
$USERR1
 40
0.0
  9
$USERR2
 40
0.0
  9
$USERR3
 40
0.0
  9
$USERR4
 40
0.0
  9
$USERR5
 40
0.0
  9
$WORLDVIEW
 70
     1
  9
$SHADEDGE
 70
     3
  9
$SHADEDIF
 70
    70
  9
$TILEMODE
 70
     1
  9
$MAXACTVP
 70
    64
  9
$PINSBASE
 10
0.0
 20
0.0
 30
0.0
  9
$PLIMCHECK
 70
     0
  9
$PEXTMIN
 10
0.0
 20
0.0
 30
0.0
  9
$PEXTMAX
 10
0.0
 20
0.0
 30
0.0
  9
$PLIMMIN
 10
0.0
 20
0.0
  9
$PLIMMAX
 10
0.0
 20
0.0
  9
$UNITMODE
 70
     0
  9
$VISRETAIN
 70
     1
  9
$PLINEGEN
 70
     0
  9
$PSLTSCALE
 70
     1
  9
$TREEDEPTH
 70
  3020
  9
$CMLSTYLE
  2
Standard
  9
$CMLJUST
 70
     0
  9
$CMLSCALE
 40
1.0
  9
$PROXYGRAPHICS
 70
     1
  9
$MEASUREMENT
 70
     0
  9
$CELWEIGHT
370
    -1
  9
$ENDCAPS
280
     0
  9
$JOINSTYLE
280
     0
  9
$LWDISPLAY
290
     0
  9
$INSUNITS
 70
     1
  9
$HYPERLINKBASE
  1

  9
$STYLESHEET
  1

  9
$XEDIT
290
     0
  9
$CEPSNTYPE
380
     0
  9
$PSTYLEMODE
290
     0
  9
$FINGERPRINTGUID
  2
{8BAE0D3F-6380-4E3D-B0D1-267E31F469C1}
  9
$VERSIONGUID
  2
{BD60B93E-AC81-4428-9AE2-CFC28AA4C8B0}
  9
$EXTNAMES
290
     1
  9
$PSVPSCALE
 40
0.0
  9
$OLESTARTUP
290
     0
  0
ENDSEC
  0
SECTION
  2
CLASSES
  0
CLASS
  1
ACDBDICTIONARYWDFLT
  2
AcDbDictionaryWithDefault
  3
ObjectDBX Classes
 90
        0
280
     0
281
     0
  0
CLASS
  1
ACDBPLACEHOLDER
  2
AcDbPlaceHolder
  3
ObjectDBX Classes
 90
        0
280
     0
281
     0
  0
CLASS
  1
LAYOUT
  2
AcDbLayout
  3
ObjectDBX Classes
 90
        0
280
     0
281
     0
  0
CLASS
  1
DICTIONARYVAR
  2
AcDbDictionaryVar
  3
ObjectDBX Classes
 90
        0
280
     0
281
     0
  0
CLASS
  1
TABLESTYLE
  2
AcDbTableStyle
  3
ObjectDBX Classes
 90
     4095
280
     0
281
     0
  0
CLASS
  1
SCALE
  2
AcDbScale
  3
ObjectDBX Classes
 90
     1153
280
     0
281
     0
  0
CLASS
  1
MATERIAL
  2
AcDbMaterial
  3
ObjectDBX Classes
 90
     1153
280
     0
281
     0
  0
CLASS
  1
MLEADERSTYLE
  2
AcDbMLeaderStyle
  3
ACDB_MLEADERSTYLE_CLASS
 90
     4095
280
     0
281
     0
  0
CLASS
  1
VISUALSTYLE
  2
AcDbVisualStyle
  3
ObjectDBX Classes
 90
     4095
280
     0
281
     0
  0
CLASS
  1
CELLSTYLEMAP
  2
AcDbCellStyleMap
  3
ObjectDBX Classes
 90
     1152
280
     0
281
     0
  0
CLASS
  1
RASTERVARIABLES
  2
AcDbRasterVariables
  3
ISM
 90
        0
280
     0
281
     0
  0
CLASS
  1
DIMASSOC
  2
AcDbDimAssoc
  3
"AcDbDimAssoc|Product Desc:     AcDim ARX App For Dimension|Company:          Autodesk, Inc.|WEB Address:      www.autodesk.com"
 90
        0
280
     0
281
     0
  0
ENDSEC
  0
SECTION
  2
TABLES
  0
TABLE
  2
VPORT
  5
8
330
0
100
AcDbSymbolTable
 70
     1
  0
VPORT
  5
97
330
8
100
AcDbSymbolTableRecord
100
AcDbViewportTableRecord
  2
*Active
 70
     0
 10
0.0
 20
0.0
 11
1.0
 21
1.0
 12
0.636967275140743
 22
0.3502701695236943
 13
0.0
 23
0.0
 14
0.5
 24
0.5
 15
0.5
 25
0.5
 16
0.0
 26
0.0
 36
1.0
 17
0.0
 27
0.0
 37
0.0
 40
0.9284761235211239
 41
1.257575757575758
 42
50.0
 43
0.0
 44
0.0
 50
0.0
 51
0.0
 71
    16
 72
  1000
 73
     1
 74
     1
 75
     0
 76
     0
 77
     0
 78
     0
281
     0
 65
     0
110
0.0
120
0.0
130
0.0
111
1.0
121
0.0
131
0.0
112
0.0
122
1.0
132
0.0
 79
     0
146
0.0
  0
ENDTAB
  0
TABLE
  2
LTYPE
  5
5
330
0
100
AcDbSymbolTable
 70
     2
  0
LTYPE
  5
14
330
5
100
AcDbSymbolTableRecord
100
AcDbLinetypeTableRecord
  2
ByBlock
 70
     0
  3

 72
    65
 73
     0
 40
0.0
  0
LTYPE
  5
15
330
5
100
AcDbSymbolTableRecord
100
AcDbLinetypeTableRecord
  2
ByLayer
 70
     0
  3

 72
    65
 73
     0
 40
0.0
  0
LTYPE
  5
16
330
5
100
AcDbSymbolTableRecord
100
AcDbLinetypeTableRecord
  2
Continuous
 70
     0
  3
Solid line
 72
    65
 73
     0
 40
0.0
  0
LTYPE
  5
1749
330
5
100
AcDbSymbolTableRecord
100
AcDbLinetypeTableRecord
  2
CENTERX2
 70
     0
  3
Center (2x) ________  __  ________  __  _____
 72
    65
 73
     4
 40
2.032
 49
1.27
 74
     4
 75
     0
340
0
 46
1.0
 50
0.0
 44
0.0
 45
0.0
 49
-0.254
 74
     4
 75
     0
340
0
 46
1.0
 50
0.0
 44
0.0
 45
0.0
 49
0.254
 74
     4
 75
     0
340
0
 46
1.0
 50
0.0
 44
0.0
 45
0.0
 49
-0.254
 74
     4
 75
     0
340
0
 46
1.0
 50
0.0
 44
0.0
 45
0.0
  0
ENDTAB
  0
TABLE
  2
LAYER
  5
2
330
0
100
AcDbSymbolTable
 70
     4
  0
LAYER
  5
10
102
{ACAD_XDICTIONARY
360
174A
102
}
330
2
100
AcDbSymbolTableRecord
100
AcDbLayerTableRecord
  2
0
 70
     0
 62
     7
  6
Continuous
370
    -3
390
F
  0
LAYER
  5
C1
102
{ACAD_XDICTIONARY
360
174B
102
}
330
2
100
AcDbSymbolTableRecord
100
AcDbLayerTableRecord
  2
S&C_cotas
 70
     0
 62
   251
  6
Continuous
370
    -3
390
F
  0
LAYER
  5
CC
330
2
100
AcDbSymbolTableRecord
100
AcDbLayerTableRecord
  2
DEFPOINTS
 70
     0
 62
     7
  6
Continuous
290
     0
370
    -3
390
F
  0
LAYER
  5
100
102
{ACAD_XDICTIONARY
360
174C
102
}
330
2
100
AcDbSymbolTableRecord
100
AcDbLayerTableRecord
  2
S&C_vistas
 70
     0
 62
   255
  6
Continuous
370
    -3
390
F
  0
ENDTAB
  0
TABLE
  2
STYLE
  5
3
330
0
100
AcDbSymbolTable
 70
     3
  0
STYLE
  5
11
330
3
100
AcDbSymbolTableRecord
100
AcDbTextStyleTableRecord
  2
Standard
 70
     0
 40
0.0
 41
1.0
 50
0.0
 71
     0
 42
0.2
  3
txt
  4

  0
STYLE
  5
C2
330
3
100
AcDbSymbolTableRecord
100
AcDbTextStyleTableRecord
  2
ARIAL
 70
     0
 40
0.0
 41
1.0
 50
0.0
 71
     0
 42
15.0
  3
ARIAL.TTF
  4

1001
ACAD
1000
Arial
1071
       34
  0
STYLE
  5
B7F
330
3
100
AcDbSymbolTableRecord
100
AcDbTextStyleTableRecord
  2
SLDTEXTSTYLE0
 70
     0
 40
0.0
 41
0.605
 50
0.0
 71
     0
 42
0.2
  3
TXT
  4

  0
ENDTAB
  0
TABLE
  2
VIEW
  5
6
330
0
100
AcDbSymbolTable
 70
     0
  0
ENDTAB
  0
TABLE
  2
UCS
  5
7
330
0
100
AcDbSymbolTable
 70
     0
  0
ENDTAB
  0
TABLE
  2
APPID
  5
9
330
0
100
AcDbSymbolTable
 70
     5
  0
APPID
  5
12
330
9
100
AcDbSymbolTableRecord
100
AcDbRegAppTableRecord
  2
ACAD
 70
     0
  0
APPID
  5
1745
330
9
100
AcDbSymbolTableRecord
100
AcDbRegAppTableRecord
  2
ACAD_DSTYLE_DIMJAG
 70
     0
  0
APPID
  5
1746
330
9
100
AcDbSymbolTableRecord
100
AcDbRegAppTableRecord
  2
ACAD_DSTYLE_DIMTALN
 70
     0
  0
APPID
  5
1747
330
9
100
AcDbSymbolTableRecord
100
AcDbRegAppTableRecord
  2
ACAD_EXEMPT_FROM_CAD_STANDARDS
 70
     0
  0
APPID
  5
1748
330
9
100
AcDbSymbolTableRecord
100
AcDbRegAppTableRecord
  2
ACAD_MLEADERVER
 70
     0
  0
ENDTAB
  0
TABLE
  2
DIMSTYLE
  5
A
330
0
100
AcDbSymbolTable
 70
     3
100
AcDbDimStyleTable
  0
DIMSTYLE
105
27
330
A
100
AcDbSymbolTableRecord
100
AcDbDimStyleTableRecord
  2
Standard
 70
     0
178
     0
340
11
  0
DIMSTYLE
105
C5
330
A
100
AcDbSymbolTableRecord
100
AcDbDimStyleTableRecord
  2
S&C_cotas
 70
     0
 41
0.1
 42
0.02
 44
0.018
 73
     0
 74
     0
140
0.02
141
0.0
147
0.0
176
   256
177
   256
271
     0
178
   256
179
     2
271
     0
272
     0
281
     1
282
     1
340
C2
341
174D
342
174D
1001
ACAD_DSTYLE_DIMJAG
1070
   388
1040
1.5
1001
ACAD_DSTYLE_DIMTALN
1070
   392
1070
     0
  0
DIMSTYLE
105
5C6
330
A
100
AcDbSymbolTableRecord
100
AcDbDimStyleTableRecord
  2
Tarifa ACAD
 70
     0
 41
0.5
 42
1.0
 45
0.5
 73
     0
 74
     0
 75
     1
 76
     1
 77
     1
140
1.5
141
1.0
147
1.0
172
     1
178
     0
271
     0
272
     0
340
11
341
1750
342
1750
  0
ENDTAB
  0
TABLE
  2
BLOCK_RECORD
  5
1
330
0
100
AcDbSymbolTable
 70
     5
  0
BLOCK_RECORD
  5
1F
330
1
100
AcDbSymbolTableRecord
100
AcDbBlockTableRecord
  2
*Model_Space
340
22
  0
BLOCK_RECORD
  5
73
330
1
100
AcDbSymbolTableRecord
100
AcDbBlockTableRecord
  2
*Paper_Space
340
74
  0
BLOCK_RECORD
  5
174D
330
1
100
AcDbSymbolTableRecord
100
AcDbBlockTableRecord
  2
_NONE
340
0
  0
BLOCK_RECORD
  5
1750
330
1
100
AcDbSymbolTableRecord
100
AcDbBlockTableRecord
  2
_DOT
340
0
  0
BLOCK_RECORD
  5
BE
330
1
100
AcDbSymbolTableRecord
100
AcDbBlockTableRecord
  2
*Paper_Space2
340
BF
  0
BLOCK_RECORD
  5
1CA3
330
1
100
AcDbSymbolTableRecord
100
AcDbBlockTableRecord
  2
*D3
340
0
  0
BLOCK_RECORD
  5
1F90
330
1
100
AcDbSymbolTableRecord
100
AcDbBlockTableRecord
  2
*D4
340
0
  0
ENDTAB
  0
ENDSEC
  0
SECTION
  2
BLOCKS
  0
BLOCK
  5
20
330
1F
100
AcDbEntity
  8
0
100
AcDbBlockBegin
  2
*Model_Space
 70
     0
 10
0.0
 20
0.0
 30
0.0
  3
*Model_Space
  1

  0
ENDBLK
  5
21
330
1F
100
AcDbEntity
  8
0
100
AcDbBlockEnd
  0
BLOCK
  5
75
330
73
100
AcDbEntity
 67
     1
  8
0
100
AcDbBlockBegin
  2
*Paper_Space
 70
     0
 10
0.0
 20
0.0
 30
0.0
  3
*Paper_Space
  1

  0
ENDBLK
  5
76
330
73
100
AcDbEntity
 67
     1
  8
0
100
AcDbBlockEnd
  0
BLOCK
  5
174E
330
174D
100
AcDbEntity
  8
0
100
AcDbBlockBegin
  2
_NONE
 70
     0
 10
0.0
 20
0.0
 30
0.0
  3
_NONE
  1

  0
ENDBLK
  5
174F
330
174D
100
AcDbEntity
  8
0
100
AcDbBlockEnd
  0
BLOCK
  5
1751
330
1750
100
AcDbEntity
  8
0
100
AcDbBlockBegin
  2
_DOT
 70
     0
 10
0.0
 20
0.0
 30
0.0
  3
_DOT
  1

  0
LWPOLYLINE
  5
C12
330
1750
100
AcDbEntity
  8
0
  6
ByBlock
 62
     0
100
AcDbPolyline
 90
        2
 70
     1
 43
0.5
 10
-0.25
 20
0.0
 42
1.0
 10
0.25
 20
0.0
 42
1.0
  0
LINE
  5
C13
330
1750
100
AcDbEntity
  8
0
  6
ByBlock
 62
     0
370
    -2
100
AcDbLine
 10
-0.5
 20
0.0
 30
0.0
 11
-1.0
 21
0.0
 31
0.0
  0
ENDBLK
  5
1752
330
1750
100
AcDbEntity
  8
0
100
AcDbBlockEnd
  0
BLOCK
  5
1758
330
BE
100
AcDbEntity
  8
0
100
AcDbBlockBegin
  2
*Paper_Space2
 70
     0
 10
0.0
 20
0.0
 30
0.0
  3
*Paper_Space2
  1

  0
ENDBLK
  5
1759
330
BE
100
AcDbEntity
  8
0
100
AcDbBlockEnd
  0
BLOCK
  5
1CAA
330
1CA3
100
AcDbEntity
  8
0
100
AcDbBlockBegin
  2
*D3
 70
     1
 10
0.0
 20
0.0
 30
0.0
  3
*D3
  1

  0
LINE
  5
1CA4
330
1CA3
100
AcDbEntity
  8
0
370
    -2
100
AcDbLine
 10
-0.3684663063673554
 20
-0.0090317257891148
 30
0.0
 11
-0.3684663063673554
 21
-0.1617253970275353
 31
0.0
  0
LINE
  5
1CA5
330
1CA3
100
AcDbEntity
  8
0
370
    -2
100
AcDbLine
 10
1.436533693632629
 20
-0.0090317257891148
 30
0.0
 11
1.436533693632629
 21
-0.1617253970275353
 31
0.0
  0
MTEXT
  5
1CA6
330
1CA3
100
AcDbEntity
  8
0
100
AcDbMText
 10
0.5340336936326369
 20
-0.1437253970275353
 30
0.0
 40
0.2
 41
0.0
 71
     5
 72
     1
  1
\A1;1.81
  7
ARIAL
 73
     1
 44
1.0
  0
POINT
  5
1CA7
330
1CA3
100
AcDbEntity
  8
DEFPOINTS
 62
     0
100
AcDbPoint
 10
-0.3684663063673554
 20
0.0109682742108852
 30
0.0
  0
POINT
  5
1CA8
330
1CA3
100
AcDbEntity
  8
DEFPOINTS
 62
     0
100
AcDbPoint
 10
1.436533693632629
 20
0.0109682742108852
 30
0.0
  0
POINT
  5
1CA9
330
1CA3
100
AcDbEntity
  8
DEFPOINTS
 62
     0
100
AcDbPoint
 10
1.436533693632629
 20
-0.1437253970275353
 30
0.0
  0
ENDBLK
  5
1CAB
330
1CA3
100
AcDbEntity
  8
0
100
AcDbBlockEnd
  0
BLOCK
  5
1F97
330
1F90
100
AcDbEntity
  8
0
100
AcDbBlockBegin
  2
*D4
 70
     1
 10
0.0
 20
0.0
 30
0.0
  3
*D4
  1

  0
LINE
  5
1F91
330
1F90
100
AcDbEntity
  8
0
370
    -2
100
AcDbLine
 10
0.3559423120261553
 20
0.7645035689873863
 30
0.0
 11
0.1284351887843293
 21
0.7645035689873863
 31
0.0
  0
LINE
  5
1F92
330
1F90
100
AcDbEntity
  8
0
370
    -2
100
AcDbLine
 10
0.3559423120261554
 20
0.6905035678008762
 30
0.0
 11
0.1284351887843293
 21
0.6905035678008762
 31
0.0
  0
MTEXT
  5
1F93
330
1F90
100
AcDbEntity
  8
0
100
AcDbMText
 10
0.1464351887843293
 20
0.1762035678008762
 30
0.0
 40
0.2
 41
0.0
 71
     5
 72
     1
  1
\A1;0.0740
  7
ARIAL
 11
0.0
 21
1.0
 31
0.0
 73
     1
 44
1.0
  0
POINT
  5
1F94
330
1F90
100
AcDbEntity
  8
DEFPOINTS
 62
     0
100
AcDbPoint
 10
0.3759423120261554
 20
0.7645035689873863
 30
0.0
  0
POINT
  5
1F95
330
1F90
100
AcDbEntity
  8
DEFPOINTS
 62
     0
100
AcDbPoint
 10
0.3759423120261554
 20
0.6905035678008762
 30
0.0
  0
POINT
  5
1F96
330
1F90
100
AcDbEntity
  8
DEFPOINTS
 62
     0
100
AcDbPoint
 10
0.1464351887843293
 20
0.6905035678008762
 30
0.0
  0
ENDBLK
  5
1F98
330
1F90
100
AcDbEntity
  8
0
100
AcDbBlockEnd
  0
ENDSEC
  0
SECTION
  2
ENTITIES
  0
MTEXT
  5
C16
330
1F
100
AcDbEntity
  8
S&C_cotas
  6
Continuous
100
AcDbMText
 10
-0.6413543027078892
 20
0.3885706223606658
 30
0.0
 40
0.02
 41
0.0
 71
     5
 72
     1
  1
Mín.50/Máx.500 cm / Mín.19.7/Máx.196.8" 
  7
ARIAL
 11
0.0
 21
1.0
 31
0.0
 73
     1
 44
1.0
  0
CIRCLE
  5
C27
330
1F
100
AcDbEntity
  8
0
  6
Continuous
 62
     7
370
    15
100
AcDbCircle
 10
-0.3459262894338636
 20
-1.130930987577492
 30
0.0
 40
0.0064999999999884
  0
CIRCLE
  5
C28
330
1F
100
AcDbEntity
  8
0
  6
Continuous
 62
     7
370
    15
100
AcDbCircle
 10
-0.3459262894338636
 20
-1.130930987577492
 30
0.0
 40
0.000550000000004
  0
CIRCLE
  5
C29
330
1F
100
AcDbEntity
  8
0
  6
Continuous
 62
     7
370
    15
100
AcDbCircle
 10
-0.3459262894338636
 20
-1.130930987577492
 30
0.0
 40
0.0055000000000121
  0
LINE
  5
C48
330
1F
100
AcDbEntity
  8
0
  6
Continuous
 62
     7
370
    15
100
AcDbLine
 10
-0.3493815458809315
 20
-1.125425415888471
 30
0.0
 11
-0.3539174095013744
 21
-1.125418093594756
 31
0.0
  0
LINE
  5
C49
330
1F
100
AcDbEntity
  8
0
  6
Continuous
 62
     7
370
    15
100
AcDbLine
 10
-0.3249174472102928
 20
-1.125464860207388
 30
0.0
 11
-0.3424533147223797
 21
-1.125436568656059
 31
0.0
  0
LINE
  5
C4A
330
1F
100
AcDbEntity
  8
0
  6
Continuous
 62
     7
370
    15
100
AcDbLine
 10
-0.3493992478445567
 20
-1.136425383831968
 30
0.0
 11
-0.3539351485613531
 21
-1.136418079291372
 31
0.0
  0
LINE
  5
C4B
330
1F
100
AcDbEntity
  8
0
  6
Continuous
 62
     7
370
    15
100
AcDbLine
 10
-0.3249351862702766
 20
-1.136464845903993
 30
0.0
 11
-0.3424710683532245
 21
-1.136436566318384
 31
0.0
  0
LINE
  5
C4C
330
1F
100
AcDbEntity
  8
0
  6
Continuous
 62
     7
370
    15
100
AcDbLine
 10
-0.3399303480672182
 20
-1.133440655229632
 30
0.0
 11
-0.3311401408124146
 21
-1.133454835620946
 31
0.0
  0
LINE
  5
C4D
330
1F
100
AcDbEntity
  8
0
  6
Continuous
 62
     7
370
    15
100
AcDbLine
 10
-0.3537205103664494
 20
-1.133418421525411
 30
0.0
 11
-0.3519303266050915
 21
-1.133421320511364
 31
0.0
  0
ARC
  5
C4E
330
1F
100
AcDbEntity
  8
0
  6
Continuous
 62
     7
370
    15
100
AcDbCircle
 10
-0.3389262985360202
 20
-1.130942276070244
 30
0.0
 40
0.0150000000000123
100
AcDbArc
 50
170.3135341632079
 51
189.5016706169275
  0
LINE
  5
C4F
330
1F
100
AcDbEntity
  8
0
  6
Continuous
 62
     7
370
    15
100
AcDbLine
 10
-0.3519222661668734
 20
-1.12842132697745
 30
0.0
 11
-0.3537124471573557
 21
-1.128418428026987
 31
0.0
  0
LINE
  5
C50
330
1F
100
AcDbEntity
  8
0
  6
Continuous
 62
     7
370
    15
100
AcDbLine
 10
-0.3311320776033194
 20
-1.128454842122522
 30
0.0
 11
-0.339922272769535
 21
-1.128440687529185
 31
0.0
  0
ARC
  5
C51
330
1F
100
AcDbEntity
  8
0
  6
Continuous
 62
     7
370
    15
100
AcDbCircle
 10
-0.3459262894338636
 20
-1.130930987577492
 30
0.0
 40
0.0150000000000123
100
AcDbArc
 50
350.3135341632079
 51
9.501670616933534
  0
LINE
  5
C52
330
1F
100
AcDbEntity
  8
0
  6
Continuous
 62
     7
370
    15
100
AcDbLine
 10
-0.3569303067350054
 20
-1.133413245266749
 30
0.0
 11
-0.3569222435259117
 21
-1.128413251768325
 31
0.0
  0
ARC
  5
C53
330
1F
100
AcDbEntity
  8
0
  6
Continuous
 62
     7
370
    15
100
AcDbCircle
 10
-0.3539303106358433
 20
-1.133418083192364
 30
0.0
 40
0.0029999999999725
100
AcDbArc
 50
179.9076023905698
 51
269.9076023905815
  0
ARC
  5
C54
330
1F
100
AcDbEntity
  8
0
  6
Continuous
 62
     7
370
    15
100
AcDbCircle
 10
-0.3539222474268046
 20
-1.128418089693845
 30
0.0
 40
0.0030000000000113
100
AcDbArc
 50
89.90760239036958
 51
179.9076023903717
  0
ARC
  5
C55
330
1F
100
AcDbEntity
  8
0
  6
Continuous
 62
     7
370
    15
100
AcDbCircle
 10
-0.4426556835061196
 20
-75.34122760644425
 30
0.0
 40
74.21585613144192
100
AcDbArc
 50
89.90601617222337
 51
89.90910423591154
  0
LWPOLYLINE
  5
C56
330
1F
100
AcDbEntity
  8
0
  6
Continuous
 62
     7
370
    15
100
AcDbPolyline
 90
        8
 70
   128
 43
0.0
 10
-0.3209351755693478
 20
-1.136471303099514
 10
-0.3209553107226846
 20
-1.136471264173891
 10
-0.3211714261308611
 20
-1.136470909454613
 10
-0.3216124546896053
 20
-1.13647020651857
 10
-0.3222521213660819
 20
-1.136469169461482
 10
-0.3230521038715726
 20
-1.136467896452986
 10
-0.3239646317681817
 20
-1.13646641447143
 10
-0.3249351733684862
 20
-1.136464849582281
  0
ARC
  5
C62
330
1F
100
AcDbEntity
  8
0
  6
Continuous
 62
     7
370
    15
100
AcDbCircle
 10
-0.3609303015337069
 20
-1.133406794699634
 30
0.0
 40
0.0029999999999725
100
AcDbArc
 50
179.9076023905698
 51
269.9076023905827
  0
LINE
  5
C63
330
1F
100
AcDbEntity
  8
0
  6
Continuous
 62
     7
370
    15
100
AcDbLine
 10
-0.3539351485613531
 20
-1.136418079291372
 30
0.0
 11
-0.360935139459192
 21
-1.136406790798627
 31
0.0
  0
LINE
  5
C64
330
1F
100
AcDbEntity
  8
0
  6
Continuous
 62
     7
370
    15
100
AcDbLine
 10
-0.3607205012643121
 20
-1.133407133032682
 30
0.0
 11
-0.3569303067350054
 21
-1.133413245266749
 31
0.0
  0
ARC
  5
C65
330
1F
100
AcDbEntity
  8
0
  6
Continuous
 62
     7
370
    15
100
AcDbCircle
 10
-0.3459262894338636
 20
-1.130930987577492
 30
0.0
 40
0.0150000000000123
100
AcDbArc
 50
170.3135341632071
 51
189.5016706169266
  0
LINE
  5
C66
330
1F
100
AcDbEntity
  8
0
  6
Continuous
 62
     7
370
    15
100
AcDbLine
 10
-0.3569222435259117
 20
-1.128413251768325
 30
0.0
 11
-0.3607124380552184
 21
-1.128407139534258
 31
0.0
  0
LINE
  5
C68
330
1F
100
AcDbEntity
  8
0
  6
Continuous
 62
     7
370
    15
100
AcDbLine
 10
-0.3639302976328926
 20
-1.133401956774035
 30
0.0
 11
-0.3639222344237397
 21
-1.128401963275714
 31
0.0
  0
LINE
  5
C69
330
1F
100
AcDbEntity
  8
0
  6
Continuous
 62
     7
370
    15
100
AcDbLine
 10
-0.3539174095013744
 20
-1.125418093594756
 30
0.0
 11
-0.3609174003992125
 21
-1.125406805102013
 31
0.0
  0
ARC
  5
C6A
330
1F
100
AcDbEntity
  8
0
  6
Continuous
 62
     7
370
    15
100
AcDbCircle
 10
-0.3609222383246673
 20
-1.128406801201116
 30
0.0
 40
0.0030000000000113
100
AcDbArc
 50
89.90760239036958
 51
179.9076023903675
  0
LINE
  5
CE6
330
1F
100
AcDbEntity
  8
0
  6
Continuous
 62
     7
370
    15
100
AcDbLine
 10
-0.3209351914715157
 20
-1.136471296471212
 30
0.0
 11
-0.3209174524115362
 21
-1.125471310774598
 31
0.0
  0
LINE
  5
D0D
330
1F
100
AcDbEntity
  8
0
  6
Continuous
 62
     7
370
    15
100
AcDbLine
 10
0.5305859379496696
 20
0.0849682742107252
 30
0.0
 11
0.5415859379496368
 21
0.0849682742107252
 31
0.0
  0
LINE
  5
D0E
330
1F
100
AcDbEntity
  8
0
  6
Continuous
 62
     7
370
    15
100
AcDbLine
 10
0.5305859379496696
 20
0.0759682742108261
 30
0.0
 11
0.5295859379496364
 21
0.0759682742108261
 31
0.0
  0
LINE
  5
D0F
330
1F
100
AcDbEntity
  8
0
  6
Continuous
 62
     7
370
    15
100
AcDbLine
 10
0.5425859379496123
 20
0.0759682742108261
 30
0.0
 11
0.5415859379496368
 21
0.0759682742108261
 31
0.0
  0
LINE
  5
D16
330
1F
100
AcDbEntity
  8
0
  6
Continuous
 62
     7
370
    15
100
AcDbLine
 10
0.5305859379496696
 20
0.0759682742108261
 30
0.0
 11
0.533585937949627
 21
0.0759682742108261
 31
0.0
  0
LINE
  5
D17
330
1F
100
AcDbEntity
  8
0
  6
Continuous
 62
     7
370
    15
100
AcDbLine
 10
0.5305859379496696
 20
0.074968274210736
 30
0.0
 11
0.5305859379496696
 21
0.0759682742108261
 31
0.0
  0
LINE
  5
D18
330
1F
100
AcDbEntity
  8
0
  6
Continuous
 62
     7
370
    15
100
AcDbLine
 10
0.5385859379496225
 20
0.0759682742108261
 30
0.0
 11
0.533585937949627
 21
0.0759682742108261
 31
0.0
  0
LINE
  5
D19
330
1F
100
AcDbEntity
  8
0
  6
Continuous
 62
     7
370
    15
100
AcDbLine
 10
0.5385859379496225
 20
0.0759682742108261
 30
0.0
 11
0.5415859379496368
 21
0.0759682742108261
 31
0.0
  0
LINE
  5
D1A
330
1F
100
AcDbEntity
  8
0
  6
Continuous
 62
     7
370
    15
100
AcDbLine
 10
0.5415859379496368
 20
0.0759682742108261
 30
0.0
 11
0.5415859379496368
 21
0.074968274210736
 31
0.0
  0
LINE
  5
D21
330
1F
100
AcDbEntity
  8
0
  6
Continuous
 62
     7
370
    15
100
AcDbLine
 10
-0.363930322003364
 20
0.0759681848448467
 30
0.0
 11
-0.3624303220033427
 21
0.0759681848448467
 31
0.0
  0
LINE
  5
D22
330
1F
100
AcDbEntity
  8
0
  6
Continuous
 62
     7
370
    15
100
AcDbLine
 10
-0.3585021187730548
 20
0.0759681848448467
 30
0.0
 11
-0.3624303220033427
 21
0.0759681848448467
 31
0.0
  0
LINE
  5
D23
330
1F
100
AcDbEntity
  8
0
  6
Continuous
 62
     7
370
    15
100
AcDbLine
 10
-0.3373155852935896
 20
0.0759681848448467
 30
0.0
 11
-0.3525021187730546
 21
0.0759681848448467
 31
0.0
  0
ARC
  5
D25
330
1F
100
AcDbEntity
  8
0
  6
Continuous
 62
     7
370
    15
100
AcDbCircle
 10
-0.3318385524808265
 20
0.0727917422166852
 30
0.0
 40
0.003176524802526
100
AcDbArc
 50
43.55191927268503
 51
89.58576491575813
  0
LINE
  5
D26
330
1F
100
AcDbEntity
  8
0
  6
Continuous
 62
     7
370
    15
100
AcDbLine
 10
-0.3373155852935896
 20
0.0759681848448467
 30
0.0
 11
-0.3318155852935775
 21
0.0759681848448467
 31
0.0
  0
LINE
  5
D27
330
1F
100
AcDbEntity
  8
0
  6
Continuous
 62
     7
370
    15
100
AcDbLine
 10
0.5415859379496368
 20
0.0736474581855244
 30
0.0
 11
0.5415859379496368
 21
0.0711675329313248
 31
0.0
  0
LINE
  5
D28
330
1F
100
AcDbEntity
  8
0
  6
Continuous
 62
     7
370
    15
100
AcDbLine
 10
0.5305859379496696
 20
0.0736474581855244
 30
0.0
 11
0.5305859379496696
 21
0.0711675329313248
 31
0.0
  0
ARC
  5
D29
330
1F
100
AcDbEntity
  8
0
  6
Continuous
 62
     7
370
    15
100
AcDbCircle
 10
0.5332665819529183
 20
0.0711784560685356
 30
0.0
 40
0.0026806662290849
100
AcDbArc
 50
180.2334727241798
 51
215.5635555537071
  0
ARC
  5
D2A
330
1F
100
AcDbEntity
  8
0
  6
Continuous
 62
     7
370
    15
100
AcDbCircle
 10
0.5389629807907111
 20
0.0711681610576823
 30
0.0
 40
0.0026229572043737
100
AcDbArc
 50
324.0349515214378
 51
359.9862750164069
  0
LINE
  5
D2B
330
1F
100
AcDbEntity
  8
0
  6
Continuous
 62
     7
370
    15
100
AcDbLine
 10
0.5415859379496368
 20
0.0739682742107561
 30
0.0
 11
0.5415859379496368
 21
0.0736474581855244
 31
0.0
  0
LINE
  5
D2C
330
1F
100
AcDbEntity
  8
0
  6
Continuous
 62
     7
370
    15
100
AcDbLine
 10
0.5305859379496696
 20
0.0739682742107561
 30
0.0
 11
0.5305859379496696
 21
0.0736474581855244
 31
0.0
  0
LINE
  5
D2E
330
1F
100
AcDbEntity
  8
0
  6
Continuous
 62
     7
370
    15
100
AcDbLine
 10
0.5415859379496368
 20
0.0739682742107561
 30
0.0
 11
0.5385859379496225
 21
0.0739682742107561
 31
0.0
  0
LINE
  5
D2F
330
1F
100
AcDbEntity
  8
0
  6
Continuous
 62
     7
370
    15
100
AcDbLine
 10
0.5415859379496368
 20
0.074968274210736
 30
0.0
 11
0.5415859379496368
 21
0.0739682742107561
 31
0.0
  0
LINE
  5
D31
330
1F
100
AcDbEntity
  8
0
  6
Continuous
 62
     7
370
    15
100
AcDbLine
 10
0.5305859379496696
 20
0.0739682742107561
 30
0.0
 11
0.5305859379496696
 21
0.074968274210736
 31
0.0
  0
LINE
  5
D32
330
1F
100
AcDbEntity
  8
0
  6
Continuous
 62
     7
370
    15
100
AcDbLine
 10
0.533585937949627
 20
0.0739682742107561
 30
0.0
 11
0.5305859379496696
 21
0.0739682742107561
 31
0.0
  0
LINE
  5
D33
330
1F
100
AcDbEntity
  8
0
  6
Continuous
 62
     7
370
    15
100
AcDbLine
 10
0.5385859379496225
 20
0.0739682742107561
 30
0.0
 11
0.533585937949627
 21
0.0739682742107561
 31
0.0
  0
LINE
  5
D35
330
1F
100
AcDbEntity
  8
0
  6
Continuous
 62
     7
370
    15
100
AcDbLine
 10
0.5410859379496211
 20
0.0429682742109261
 30
0.0
 11
0.5310859379496293
 21
0.0429682742109261
 31
0.0
  0
LINE
  5
DAC
330
1F
100
AcDbEntity
  8
0
  6
Continuous
 62
     7
370
    15
100
AcDbLine
 10
1.436533693632629
 20
0.0109682742108852
 30
0.0
 11
-0.3684663063673554
 21
0.0109682742108852
 31
0.0
  0
LINE
  5
DAD
330
1F
100
AcDbEntity
  8
0
  6
Continuous
 62
     7
370
    15
100
AcDbLine
 10
1.436533693632629
 20
0.0409682742108561
 30
0.0
 11
-0.3684663063673554
 21
0.0409682742108561
 31
0.0
  0
LINE
  5
DAE
330
1F
100
AcDbEntity
  8
0
  6
Continuous
 62
     7
370
    15
100
AcDbLine
 10
0.5305859379496696
 20
0.0849682742107252
 30
0.0
 11
0.5298788311684774
 21
0.0842611674295348
 31
0.0
  0
LINE
  5
DAF
330
1F
100
AcDbEntity
  8
0
  6
Continuous
 62
     7
370
    15
100
AcDbLine
 10
0.542293044730829
 20
0.0842611674295348
 30
0.0
 11
0.5415859379496368
 21
0.0849682742107252
 31
0.0
  0
LINE
  5
DB0
330
1F
100
AcDbEntity
  8
0
  6
Continuous
 62
     7
370
    15
100
AcDbLine
 10
0.5295859379496364
 20
0.0835540606483445
 30
0.0
 11
0.5295859379496364
 21
0.0759682742108261
 31
0.0
  0
LINE
  5
DB1
330
1F
100
AcDbEntity
  8
0
  6
Continuous
 62
     7
370
    15
100
AcDbLine
 10
0.5425859379496123
 20
0.0759682742108261
 30
0.0
 11
0.5425859379496123
 21
0.0835540606483445
 31
0.0
  0
ARC
  5
DB2
330
1F
100
AcDbEntity
  8
0
  6
Continuous
 62
     7
370
    15
100
AcDbCircle
 10
0.5415859379496368
 20
0.0835540606483445
 30
0.0
 40
0.0010000000000048
100
AcDbArc
 50
0.0
 51
45.0
  0
ARC
  5
DB3
330
1F
100
AcDbEntity
  8
0
  6
Continuous
 62
     7
370
    15
100
AcDbCircle
 10
0.5305859379496696
 20
0.0835540606483445
 30
0.0
 40
0.0010000000000079
100
AcDbArc
 50
135.0
 51
180.0
  0
LINE
  5
DC1
330
1F
100
AcDbEntity
  8
0
  6
Continuous
 62
     7
370
    15
100
AcDbLine
 10
-0.363930322003364
 20
0.0759681848448467
 30
0.0
 11
-0.3639303015336794
 21
0.0749804046527666
 31
0.0
  0
LINE
  5
DC2
330
1F
100
AcDbEntity
  8
0
  6
Continuous
 62
     7
370
    15
100
AcDbLine
 10
0.5320859377596634
 20
0.0429682735466557
 30
0.0
 11
0.5320859377596634
 21
0.0409682750813545
 31
0.0
  0
LINE
  5
DC3
330
1F
100
AcDbEntity
  8
0
  6
Continuous
 62
     7
370
    15
100
AcDbLine
 10
0.540085938139643
 20
0.0409682750813545
 30
0.0
 11
0.540085938139643
 21
0.0429682735466557
 31
0.0
  0
LINE
  5
DC4
330
1F
100
AcDbEntity
  8
0
  6
Continuous
 62
     7
370
    15
100
AcDbLine
 10
0.5310859380614119
 20
0.0739682730400162
 30
0.0
 11
0.5310859379496293
 21
0.0429682742109261
 31
0.0
  0
LINE
  5
DC5
330
1F
100
AcDbEntity
  8
0
  6
Continuous
 62
     7
370
    15
100
AcDbLine
 10
0.5410859379496211
 20
0.0429682742109261
 30
0.0
 11
0.5410859378378661
 21
0.0614853169881862
 31
0.0
  0
LINE
  5
DC7
330
1F
100
AcDbEntity
  8
0
  6
Continuous
 62
     7
370
    15
100
AcDbLine
 10
0.5410859378378661
 20
0.0614853169881862
 30
0.0
 11
0.5410859378378661
 21
0.0739682730400162
 31
0.0
  0
LINE
  5
E40
330
1F
100
AcDbEntity
  8
0
  6
Continuous
 62
     7
370
    15
100
AcDbLine
 10
-0.2969311353037824
 20
-0.001584971884764
 30
0.0
 11
1.3654072940126
 21
-0.0016129513754776
 31
0.0
  0
ARC
  5
E41
330
1F
100
AcDbEntity
  8
0
  6
Continuous
 62
     7
370
    15
100
AcDbCircle
 10
-0.2973399067473281
 20
0.0013870486245651
 30
0.0
 40
0.0029999999999697
100
AcDbArc
 50
207.5388233488571
 51
269.9999999992813
  0
ARC
  5
E42
330
1F
100
AcDbEntity
  8
0
  6
Continuous
 62
     7
370
    15
100
AcDbCircle
 10
1.365407294012601
 20
0.0013870486245651
 30
0.0
 40
0.0030000000000427
100
AcDbArc
 50
270.0
 51
332.4611766504319
  0
LINE
  5
E43
330
1F
100
AcDbEntity
  8
0
  6
Continuous
 62
     7
370
    15
100
AcDbLine
 10
1.368067387265302
 20
0.0000000000000053
 30
0.0
 11
1.369858052095923
 21
0.0034341536575049
 31
0.0
  0
LINE
  5
E44
330
1F
100
AcDbEntity
  8
0
  6
Continuous
 62
     7
370
    15
100
AcDbLine
 10
-0.3017906648306507
 20
0.0034341536575049
 30
0.0
 11
-0.2999999999999716
 21
0.0000000000000053
 31
0.0
  0
LINE
  5
E4B
330
1F
100
AcDbEntity
  8
0
  6
Continuous
 62
     7
370
    15
100
AcDbLine
 10
1.403269614538704
 20
0.0677273649835151
 30
0.0
 11
1.404991169131267
 21
0.0710290189232445
 31
0.0
  0
LINE
  5
E4C
330
1F
100
AcDbEntity
  8
0
  6
Continuous
 62
     7
370
    15
100
AcDbLine
 10
-0.3369237818659656
 20
0.0710290189232445
 30
0.0
 11
-0.3352022272734303
 21
0.0677273649835151
 31
0.0
  0
LINE
  5
E4D
330
1F
100
AcDbEntity
  8
0
  6
Continuous
 62
     7
370
    15
100
AcDbLine
 10
0.5305859379496696
 20
0.074968274210736
 30
0.0
 11
-0.3335956291775959
 21
0.0749804925635545
 31
0.0
  0
LINE
  5
E4E
330
1F
100
AcDbEntity
  8
0
  6
Continuous
 62
     7
370
    15
100
AcDbLine
 10
1.402064409491637
 20
0.0749585991256689
 30
0.0
 11
0.5415859379496368
 21
0.0749804925634461
 31
0.0
  0
ARC
  5
E4F
330
1F
100
AcDbEntity
  8
0
  6
Continuous
 62
     7
370
    15
100
AcDbCircle
 10
-0.3335956291775972
 20
0.0712899871472246
 30
0.0
 40
0.0036905054163299
100
AcDbArc
 50
90.0
 51
156.8822076566611
  0
ARC
  5
E50
330
1F
100
AcDbEntity
  8
0
  6
Continuous
 62
     7
370
    15
100
AcDbCircle
 10
1.401663016442927
 20
0.0712899871472246
 30
0.0
 40
0.0036905054163067
100
AcDbArc
 50
23.11779234382881
 51
90.0000000004895
  0
ARC
  5
E51
330
1F
100
AcDbEntity
  8
0
  6
Continuous
 62
     7
370
    15
100
AcDbCircle
 10
-0.3351503863641653
 20
0.0719537180062861
 30
0.0
 40
0.0019999999999875
100
AcDbArc
 50
156.8822076575211
 51
207.5388233504648
  0
ARC
  5
E52
330
1F
100
AcDbEntity
  8
0
  6
Continuous
 62
     7
370
    15
100
AcDbCircle
 10
1.403217773629495
 20
0.0719537180062861
 30
0.0
 40
0.0019999999999966
100
AcDbArc
 50
332.4611766513943
 51
23.11779234437413
  0
LINE
  5
E53
330
1F
100
AcDbEntity
  8
0
  6
Continuous
 62
     7
370
    15
100
AcDbLine
 10
-0.3684663063673554
 20
0.0409682742108561
 30
0.0
 11
-0.3684663063673554
 21
0.0109682742108852
 31
0.0
  0
LINE
  5
E54
330
1F
100
AcDbEntity
  8
0
  6
Continuous
 62
     7
370
    15
100
AcDbLine
 10
1.436533693632629
 20
0.0109682742108852
 30
0.0
 11
1.436533693632629
 21
0.0409682742108561
 31
0.0
  0
LINE
  5
E56
330
1F
100
AcDbEntity
  8
0
  6
Continuous
 62
     7
370
    15
100
AcDbLine
 10
0.6764996160435999
 20
0.6905035678008762
 30
0.0
 11
1.421452265115307
 21
0.0849681848447458
 31
0.0
  0
LINE
  5
E5C
330
1F
100
AcDbEntity
  8
0
  6
Continuous
 62
     7
370
    15
100
AcDbLine
 10
0.4160336911973062
 20
0.6869035683283755
 30
0.0
 11
0.4160336911973062
 21
0.6905035678008762
 31
0.0
  0
LINE
  5
E5D
330
1F
100
AcDbEntity
  8
0
  6
Continuous
 62
     7
370
    15
100
AcDbLine
 10
0.409033693632666
 20
0.6905035678008762
 30
0.0
 11
0.409033693632666
 21
0.6869035683283755
 31
0.0
  0
LINE
  5
E5E
330
1F
100
AcDbEntity
  8
0
  6
Continuous
 62
     7
370
    15
100
AcDbLine
 10
0.6628509385297008
 20
0.6869035683283755
 30
0.0
 11
0.6628509385297008
 21
0.6905035678008762
 31
0.0
  0
LINE
  5
E5F
330
1F
100
AcDbEntity
  8
0
  6
Continuous
 62
     7
370
    15
100
AcDbLine
 10
0.6558509391434901
 20
0.6905035678008762
 30
0.0
 11
0.6558509391434901
 21
0.6869035683283755
 31
0.0
  0
LINE
  5
E62
330
1F
100
AcDbEntity
  8
0
  6
Continuous
 62
     7
370
    15
100
AcDbLine
 10
0.5394423127295331
 20
0.6869035683283755
 30
0.0
 11
0.5394423127295331
 21
0.6905035678008762
 31
0.0
  0
LINE
  5
E63
330
1F
100
AcDbEntity
  8
0
  6
Continuous
 62
     7
370
    15
100
AcDbLine
 10
0.5324423162987912
 20
0.6905035678008762
 30
0.0
 11
0.5324423162987912
 21
0.6869035683283755
 31
0.0
  0
LINE
  5
E72
330
1F
100
AcDbEntity
  8
0
  6
Continuous
 62
     7
370
    15
100
AcDbLine
 10
0.4085336999605351
 20
0.7025035679051861
 30
0.0
 11
0.4085336999605351
 21
0.6925035681287053
 31
0.0
  0
LINE
  5
E73
330
1F
100
AcDbEntity
  8
0
  6
Continuous
 62
     7
370
    15
100
AcDbLine
 10
0.4165336966913173
 20
0.6925035681287053
 30
0.0
 11
0.4165336966913173
 21
0.7025035679051861
 31
0.0
  0
LINE
  5
E74
330
1F
100
AcDbEntity
  8
0
  6
Continuous
 62
     7
370
    15
100
AcDbLine
 10
0.5319423178496336
 20
0.714503568009496
 30
0.0
 11
0.5319423178496336
 21
0.7045035682330045
 31
0.0
  0
LINE
  5
E75
330
1F
100
AcDbEntity
  8
0
  6
Continuous
 62
     7
370
    15
100
AcDbLine
 10
0.5399423111786916
 20
0.7045035682330045
 30
0.0
 11
0.5399423111786916
 21
0.714503568009496
 31
0.0
  0
LINE
  5
E76
330
1F
100
AcDbEntity
  8
0
  6
Continuous
 62
     7
370
    15
100
AcDbLine
 10
0.6553509361587047
 20
0.7025035679051861
 30
0.0
 11
0.6553509361587047
 21
0.6950035676071646
 31
0.0
  0
LINE
  5
E77
330
1F
100
AcDbEntity
  8
0
  6
Continuous
 62
     7
370
    15
100
AcDbLine
 10
0.6633509353987037
 20
0.6950035676071646
 30
0.0
 11
0.6633509353987037
 21
0.7025035679051861
 31
0.0
  0
LINE
  5
E78
330
1F
100
AcDbEntity
  8
0
  6
Continuous
 62
     7
370
    15
100
AcDbLine
 10
0.5319423178496336
 20
0.7025035679051861
 30
0.0
 11
0.5319423178496336
 21
0.6925035681287053
 31
0.0
  0
LINE
  5
E79
330
1F
100
AcDbEntity
  8
0
  6
Continuous
 62
     7
370
    15
100
AcDbLine
 10
0.5399423111786916
 20
0.6925035681287053
 30
0.0
 11
0.5399423111786916
 21
0.7025035679051861
 31
0.0
  0
LINE
  5
E7A
330
1F
100
AcDbEntity
  8
0
  6
Continuous
 62
     7
370
    15
100
AcDbLine
 10
0.6553509361587047
 20
0.714503568009496
 30
0.0
 11
0.6553509361587047
 21
0.7070035677114657
 31
0.0
  0
LINE
  5
E7B
330
1F
100
AcDbEntity
  8
0
  6
Continuous
 62
     7
370
    15
100
AcDbLine
 10
0.6633509353987037
 20
0.7070035677114657
 30
0.0
 11
0.6633509353987037
 21
0.714503568009496
 31
0.0
  0
LINE
  5
E7C
330
1F
100
AcDbEntity
  8
0
  6
Continuous
 62
     7
370
    15
100
AcDbLine
 10
0.4085336999605351
 20
0.714503568009496
 30
0.0
 11
0.4085336999605351
 21
0.7045035682330045
 31
0.0
  0
LINE
  5
E7D
330
1F
100
AcDbEntity
  8
0
  6
Continuous
 62
     7
370
    15
100
AcDbLine
 10
0.4165336966913173
 20
0.7045035682330045
 30
0.0
 11
0.4165336966913173
 21
0.714503568009496
 31
0.0
  0
LINE
  5
E7E
330
1F
100
AcDbEntity
  8
0
  6
Continuous
 62
     7
370
    15
100
AcDbLine
 10
0.5399423111786916
 20
0.7165035681044856
 30
0.0
 11
0.5399423111786916
 21
0.7265035681138059
 31
0.0
  0
LINE
  5
E7F
330
1F
100
AcDbEntity
  8
0
  6
Continuous
 62
     7
370
    15
100
AcDbLine
 10
0.5319423178496336
 20
0.7265035681138059
 30
0.0
 11
0.5319423178496336
 21
0.7165035681044856
 31
0.0
  0
LINE
  5
E80
330
1F
100
AcDbEntity
  8
0
  6
Continuous
 62
     7
370
    15
100
AcDbLine
 10
0.5399423111786916
 20
0.7285035684416261
 30
0.0
 11
0.5399423111786916
 21
0.7385035682181051
 31
0.0
  0
LINE
  5
E81
330
1F
100
AcDbEntity
  8
0
  6
Continuous
 62
     7
370
    15
100
AcDbLine
 10
0.5319423178496336
 20
0.7385035682181051
 30
0.0
 11
0.5319423178496336
 21
0.7285035684416261
 31
0.0
  0
LINE
  5
E82
330
1F
100
AcDbEntity
  8
0
  6
Continuous
 62
     7
370
    15
100
AcDbLine
 10
0.6633509353987037
 20
0.7285035684416261
 30
0.0
 11
0.6633509353987037
 21
0.7385035682181051
 31
0.0
  0
LINE
  5
E83
330
1F
100
AcDbEntity
  8
0
  6
Continuous
 62
     7
370
    15
100
AcDbLine
 10
0.6553509361587047
 20
0.7385035682181051
 30
0.0
 11
0.6553509361587047
 21
0.7285035684416261
 31
0.0
  0
LINE
  5
E84
330
1F
100
AcDbEntity
  8
0
  6
Continuous
 62
     7
370
    15
100
AcDbLine
 10
0.4165336966913173
 20
0.7165035681044856
 30
0.0
 11
0.4165336966913173
 21
0.7265035681138059
 31
0.0
  0
LINE
  5
E85
330
1F
100
AcDbEntity
  8
0
  6
Continuous
 62
     7
370
    15
100
AcDbLine
 10
0.4085336999605351
 20
0.7265035681138059
 30
0.0
 11
0.4085336999605351
 21
0.7165035681044856
 31
0.0
  0
LINE
  5
E86
330
1F
100
AcDbEntity
  8
0
  6
Continuous
 62
     7
370
    15
100
AcDbLine
 10
0.6633509353987037
 20
0.7165035681044856
 30
0.0
 11
0.6633509353987037
 21
0.7265035681138059
 31
0.0
  0
LINE
  5
E87
330
1F
100
AcDbEntity
  8
0
  6
Continuous
 62
     7
370
    15
100
AcDbLine
 10
0.6553509361587047
 20
0.7265035681138059
 30
0.0
 11
0.6553509361587047
 21
0.7165035681044856
 31
0.0
  0
LINE
  5
E88
330
1F
100
AcDbEntity
  8
0
  6
Continuous
 62
     7
370
    15
100
AcDbLine
 10
0.4165336966913173
 20
0.7285035684416261
 30
0.0
 11
0.4165336966913173
 21
0.7385035682181051
 31
0.0
  0
LINE
  5
E89
330
1F
100
AcDbEntity
  8
0
  6
Continuous
 62
     7
370
    15
100
AcDbLine
 10
0.4085336999605351
 20
0.7385035682181051
 30
0.0
 11
0.4085336999605351
 21
0.7285035684416261
 31
0.0
  0
LINE
  5
E8C
102
{ACAD_REACTORS
102
}
330
1F
100
AcDbEntity
  8
0
  6
Continuous
 62
     7
370
    15
100
AcDbLine
 10
0.3759423120261554
 20
0.6925035681287053
 30
0.0
 11
0.3759423120261554
 21
0.6905035678008762
 31
0.0
  0
LINE
  5
E8D
330
1F
100
AcDbEntity
  8
0
  6
Continuous
 62
     7
370
    15
100
AcDbLine
 10
0.6959423136390228
 20
0.6905035678008762
 30
0.0
 11
0.6959423136390228
 21
0.6925035681287053
 31
0.0
  0
LINE
  5
E8E
330
1F
100
AcDbEntity
  8
0
  6
Continuous
 62
     7
370
    15
100
AcDbLine
 10
0.6959423136390228
 20
0.7025035679051861
 30
0.0
 11
0.6959423136390228
 21
0.7045035682330045
 31
0.0
  0
LINE
  5
E8F
330
1F
100
AcDbEntity
  8
0
  6
Continuous
 62
     7
370
    15
100
AcDbLine
 10
0.3759423120261554
 20
0.7045035682330045
 30
0.0
 11
0.3759423120261554
 21
0.7025035679051861
 31
0.0
  0
LINE
  5
E90
330
1F
100
AcDbEntity
  8
0
  6
Continuous
 62
     7
370
    15
100
AcDbLine
 10
0.6959423136390228
 20
0.714503568009496
 30
0.0
 11
0.6959423136390228
 21
0.7165035681044856
 31
0.0
  0
LINE
  5
E91
330
1F
100
AcDbEntity
  8
0
  6
Continuous
 62
     7
370
    15
100
AcDbLine
 10
0.3759423120261554
 20
0.7165035681044856
 30
0.0
 11
0.3759423120261554
 21
0.714503568009496
 31
0.0
  0
LINE
  5
E92
330
1F
100
AcDbEntity
  8
0
  6
Continuous
 62
     7
370
    15
100
AcDbLine
 10
0.6959423136390228
 20
0.7265035681138059
 30
0.0
 11
0.6959423136390228
 21
0.7285035684416261
 31
0.0
  0
LINE
  5
E93
330
1F
100
AcDbEntity
  8
0
  6
Continuous
 62
     7
370
    15
100
AcDbLine
 10
0.3759423120261554
 20
0.7285035684416261
 30
0.0
 11
0.3759423120261554
 21
0.7265035681138059
 31
0.0
  0
LINE
  5
E94
330
1F
100
AcDbEntity
  8
0
  6
Continuous
 62
     7
370
    15
100
AcDbLine
 10
0.6959423136390228
 20
0.7385035682181051
 30
0.0
 11
0.6959423136390228
 21
0.7405035685459359
 31
0.0
  0
LINE
  5
E95
330
1F
100
AcDbEntity
  8
0
  6
Continuous
 62
     7
370
    15
100
AcDbLine
 10
0.3759423120261554
 20
0.7405035685459359
 30
0.0
 11
0.3759423120261554
 21
0.7385035682181051
 31
0.0
  0
LINE
  5
EF7
330
1F
100
AcDbEntity
  8
0
  6
Continuous
 62
     7
370
    15
100
AcDbLine
 10
0.6553575930732762
 20
0.6925035681287053
 30
0.0
 11
0.6553575930732762
 21
0.6950035676071646
 31
0.0
  0
LINE
  5
EF8
330
1F
100
AcDbEntity
  8
0
  6
Continuous
 62
     7
370
    15
100
AcDbLine
 10
0.6553575930732762
 20
0.6950035676071646
 30
0.0
 11
0.6553509361587047
 21
0.6950035676071646
 31
0.0
  0
LINE
  5
EF9
330
1F
100
AcDbEntity
  8
0
  6
Continuous
 62
     7
370
    15
100
AcDbLine
 10
0.6633442755286652
 20
0.6925035681287053
 30
0.0
 11
0.6633442755286652
 21
0.6950035676071646
 31
0.0
  0
LINE
  5
EFF
330
1F
100
AcDbEntity
  8
0
  6
Continuous
 62
     7
370
    15
100
AcDbLine
 10
0.6553575930732762
 20
0.7045035682330045
 30
0.0
 11
0.6553575930732762
 21
0.7070035677114657
 31
0.0
  0
LINE
  5
F00
330
1F
100
AcDbEntity
  8
0
  6
Continuous
 62
     7
370
    15
100
AcDbLine
 10
0.6553575930732762
 20
0.7070035677114657
 30
0.0
 11
0.6553509361587047
 21
0.7070035677114657
 31
0.0
  0
LINE
  5
F01
330
1F
100
AcDbEntity
  8
0
  6
Continuous
 62
     7
370
    15
100
AcDbLine
 10
0.6633442755286652
 20
0.7045035682330045
 30
0.0
 11
0.6633442755286652
 21
0.7070035677114657
 31
0.0
  0
LINE
  5
F09
330
1F
100
AcDbEntity
  8
0
  6
Continuous
 62
     7
370
    15
100
AcDbLine
 10
0.3994614403527663
 20
0.6905035678008762
 30
0.0
 11
0.6724231866256218
 21
0.6905035678008762
 31
0.0
  0
LINE
  5
F0A
330
1F
100
AcDbEntity
  8
0
  6
Continuous
 62
     7
370
    15
100
AcDbLine
 10
0.3994614403527663
 20
0.6925035681287053
 30
0.0
 11
0.6724231866256218
 21
0.6925035681287053
 31
0.0
  0
LINE
  5
F0B
330
1F
100
AcDbEntity
  8
0
  6
Continuous
 62
     7
370
    15
100
AcDbLine
 10
0.3994614403527663
 20
0.6905035678008762
 30
0.0
 11
0.3990204660594188
 21
0.6905035678008762
 31
0.0
  0
LINE
  5
F0C
330
1F
100
AcDbEntity
  8
0
  6
Continuous
 62
     7
370
    15
100
AcDbLine
 10
0.3990204660594188
 20
0.6925035681287053
 30
0.0
 11
0.3994614403527663
 21
0.6925035681287053
 31
0.0
  0
LINE
  5
F0D
330
1F
100
AcDbEntity
  8
0
  6
Continuous
 62
     7
370
    15
100
AcDbLine
 10
0.6728641673404212
 20
0.6905035678008762
 30
0.0
 11
0.6724231866256218
 21
0.6905035678008762
 31
0.0
  0
LINE
  5
F0E
330
1F
100
AcDbEntity
  8
0
  6
Continuous
 62
     7
370
    15
100
AcDbLine
 10
0.6724231866256218
 20
0.6925035681287053
 30
0.0
 11
0.6728641673404212
 21
0.6925035681287053
 31
0.0
  0
LINE
  5
F10
330
1F
100
AcDbEntity
  8
0
  6
Continuous
 62
     7
370
    15
100
AcDbLine
 10
0.3990204609243255
 20
0.6905035678008762
 30
0.0
 11
0.3953850163203549
 21
0.6905035678008762
 31
0.0
  0
LINE
  5
F11
330
1F
100
AcDbEntity
  8
0
  6
Continuous
 62
     7
370
    15
100
AcDbLine
 10
0.3953850163203549
 20
0.6925035681287053
 30
0.0
 11
0.3990204609243255
 21
0.6925035681287053
 31
0.0
  0
LINE
  5
F13
330
1F
100
AcDbEntity
  8
0
  6
Continuous
 62
     7
370
    15
100
AcDbLine
 10
0.6764996160435999
 20
0.6905035678008762
 30
0.0
 11
0.6728641715179862
 21
0.6905035678008762
 31
0.0
  0
LINE
  5
F14
330
1F
100
AcDbEntity
  8
0
  6
Continuous
 62
     7
370
    15
100
AcDbLine
 10
0.6728641715179862
 20
0.6925035681287053
 30
0.0
 11
0.6764996160435999
 21
0.6925035681287053
 31
0.0
  0
LINE
  5
F15
330
1F
100
AcDbEntity
  8
0
  6
Continuous
 62
     7
370
    15
100
AcDbLine
 10
0.3759423120261554
 20
0.6905035678008762
 30
0.0
 11
0.3953850163203549
 21
0.6905035678008762
 31
0.0
  0
LINE
  5
F16
330
1F
100
AcDbEntity
  8
0
  6
Continuous
 62
     7
370
    15
100
AcDbLine
 10
0.3759423120261554
 20
0.6925035681287053
 30
0.0
 11
0.3953850163203549
 21
0.6925035681287053
 31
0.0
  0
LINE
  5
F17
330
1F
100
AcDbEntity
  8
0
  6
Continuous
 62
     7
370
    15
100
AcDbLine
 10
0.6764996160435999
 20
0.6905035678008762
 30
0.0
 11
0.6959423136390228
 21
0.6905035678008762
 31
0.0
  0
LINE
  5
F18
330
1F
100
AcDbEntity
  8
0
  6
Continuous
 62
     7
370
    15
100
AcDbLine
 10
0.6764996160435999
 20
0.6925035681287053
 30
0.0
 11
0.6959423136390228
 21
0.6925035681287053
 31
0.0
  0
LINE
  5
F19
330
1F
100
AcDbEntity
  8
0
  6
Continuous
 62
     7
370
    15
100
AcDbLine
 10
0.6159423170568488
 20
0.7045035682330045
 30
0.0
 11
0.6959423136390228
 21
0.7045035682330045
 31
0.0
  0
LINE
  5
F1A
330
1F
100
AcDbEntity
  8
0
  6
Continuous
 62
     7
370
    15
100
AcDbLine
 10
0.3759423120261554
 20
0.7045035682330045
 30
0.0
 11
0.6159423170568488
 21
0.7045035682330045
 31
0.0
  0
LINE
  5
F1B
330
1F
100
AcDbEntity
  8
0
  6
Continuous
 62
     7
370
    15
100
AcDbLine
 10
0.6159423170568488
 20
0.7025035679051861
 30
0.0
 11
0.6959423136390228
 21
0.7025035679051861
 31
0.0
  0
LINE
  5
F1C
330
1F
100
AcDbEntity
  8
0
  6
Continuous
 62
     7
370
    15
100
AcDbLine
 10
0.3759423120261554
 20
0.7025035679051861
 30
0.0
 11
0.6159423170568488
 21
0.7025035679051861
 31
0.0
  0
LINE
  5
F1D
330
1F
100
AcDbEntity
  8
0
  6
Continuous
 62
     7
370
    15
100
AcDbLine
 10
0.4385404896932021
 20
0.714503568009496
 30
0.0
 11
0.6959423136390228
 21
0.714503568009496
 31
0.0
  0
LINE
  5
F1E
330
1F
100
AcDbEntity
  8
0
  6
Continuous
 62
     7
370
    15
100
AcDbLine
 10
0.3759423120261554
 20
0.714503568009496
 30
0.0
 11
0.4385404896932021
 21
0.714503568009496
 31
0.0
  0
LINE
  5
F1F
330
1F
100
AcDbEntity
  8
0
  6
Continuous
 62
     7
370
    15
100
AcDbLine
 10
0.4385404896932021
 20
0.7165035681044856
 30
0.0
 11
0.6959423136390228
 21
0.7165035681044856
 31
0.0
  0
LINE
  5
F20
330
1F
100
AcDbEntity
  8
0
  6
Continuous
 62
     7
370
    15
100
AcDbLine
 10
0.3759423120261554
 20
0.7165035681044856
 30
0.0
 11
0.4385404896932021
 21
0.7165035681044856
 31
0.0
  0
LINE
  5
F21
330
1F
100
AcDbEntity
  8
0
  6
Continuous
 62
     7
370
    15
100
AcDbLine
 10
0.4385404896932021
 20
0.7265035681138059
 30
0.0
 11
0.6959423136390228
 21
0.7265035681138059
 31
0.0
  0
LINE
  5
F22
330
1F
100
AcDbEntity
  8
0
  6
Continuous
 62
     7
370
    15
100
AcDbLine
 10
0.3759423120261554
 20
0.7265035681138059
 30
0.0
 11
0.4385404896932021
 21
0.7265035681138059
 31
0.0
  0
LINE
  5
F23
330
1F
100
AcDbEntity
  8
0
  6
Continuous
 62
     7
370
    15
100
AcDbLine
 10
0.4385404896932021
 20
0.7285035684416261
 30
0.0
 11
0.6959423136390228
 21
0.7285035684416261
 31
0.0
  0
LINE
  5
F24
330
1F
100
AcDbEntity
  8
0
  6
Continuous
 62
     7
370
    15
100
AcDbLine
 10
0.3759423120261554
 20
0.7285035684416261
 30
0.0
 11
0.4385404896932021
 21
0.7285035684416261
 31
0.0
  0
LINE
  5
F25
330
1F
100
AcDbEntity
  8
0
  6
Continuous
 62
     7
370
    15
100
AcDbLine
 10
0.4385404896932021
 20
0.7385035682181051
 30
0.0
 11
0.6959423136390228
 21
0.7385035682181051
 31
0.0
  0
LINE
  5
F26
330
1F
100
AcDbEntity
  8
0
  6
Continuous
 62
     7
370
    15
100
AcDbLine
 10
0.3759423120261554
 20
0.7385035682181051
 30
0.0
 11
0.4385404896932021
 21
0.7385035682181051
 31
0.0
  0
LINE
  5
F27
330
1F
100
AcDbEntity
  8
0
  6
Continuous
 62
     7
370
    15
100
AcDbLine
 10
0.4385404896932021
 20
0.7405035685459359
 30
0.0
 11
0.6959423136390228
 21
0.7405035685459359
 31
0.0
  0
LINE
  5
F28
330
1F
100
AcDbEntity
  8
0
  6
Continuous
 62
     7
370
    15
100
AcDbLine
 10
0.3759423120261554
 20
0.7405035685459359
 30
0.0
 11
0.4385404896932021
 21
0.7405035685459359
 31
0.0
  0
LINE
  5
F29
330
1F
100
AcDbEntity
  8
0
  6
Continuous
 62
     7
370
    15
100
AcDbLine
 10
0.4160336911973062
 20
0.6869035683283755
 30
0.0
 11
0.409033693632666
 21
0.6869035683283755
 31
0.0
  0
LINE
  5
F2A
330
1F
100
AcDbEntity
  8
0
  6
Continuous
 62
     7
370
    15
100
AcDbLine
 10
0.6572202709948831
 20
0.6869035683283755
 30
0.0
 11
0.6558509391434901
 21
0.6869035683283755
 31
0.0
  0
LINE
  5
F2B
330
1F
100
AcDbEntity
  8
0
  6
Continuous
 62
     7
370
    15
100
AcDbLine
 10
0.6628509385297008
 20
0.6869035683283755
 30
0.0
 11
0.6572202709948831
 21
0.6869035683283755
 31
0.0
  0
LINE
  5
F2C
330
1F
100
AcDbEntity
  8
0
  6
Continuous
 62
     7
370
    15
100
AcDbLine
 10
0.5394423127295331
 20
0.6869035683283755
 30
0.0
 11
0.5324423162987912
 21
0.6869035683283755
 31
0.0
  0
POINT
  5
F2D
330
1F
100
AcDbEntity
  8
0
  6
Continuous
 62
     7
370
    15
100
AcDbPoint
 10
0.3759423120261554
 20
0.7405035685459359
 30
0.0
  0
POINT
  5
F2E
330
1F
100
AcDbEntity
  8
0
  6
Continuous
 62
     7
370
    15
100
AcDbPoint
 10
0.3759423120261554
 20
0.6905035678008762
 30
0.0
  0
LINE
  5
F2F
330
1F
100
AcDbEntity
  8
S&C_cotas
370
    -2
100
AcDbLine
 10
0.3559423120261549
 20
0.7645035689873863
 30
0.0
 11
-0.7039152557446378
 21
0.7645035689873863
 31
0.0
  0
MTEXT
  5
F31
330
1F
100
AcDbEntity
  8
S&C_cotas
100
AcDbMText
 10
0.234730597142795
 20
0.7026505597853843
 30
0.0
 40
0.015
 41
0.0
 71
     5
 72
     1
  1
{7,4 cm / 2.9"}
  7
ARIAL
 11
5.551115123125783E-17
 21
1.0
 31
0.0
 73
     1
 44
1.0
1001
ACAD
1000
ACAD_MTEXT_DEFINED_HEIGHT_BEGIN
1070
    46
1040
0.02524
1000
ACAD_MTEXT_DEFINED_HEIGHT_END
  0
LINE
  5
F34
330
1F
100
AcDbEntity
  8
S&C_cotas
  6
Continuous
370
    -2
100
AcDbLine
 10
0.3759423120261554
 20
0.7877059738501159
 30
0.0
 11
0.3759209794199254
 21
0.8566575781878121
 31
0.0
  0
LINE
  5
F35
330
1F
100
AcDbEntity
  8
S&C_cotas
  6
Continuous
370
    -2
100
AcDbLine
 10
0.695920575406353
 20
0.7877059738501159
 30
0.0
 11
0.6958892589475004
 21
0.8557065425213203
 31
0.0
  0
LINE
  5
F37
330
1F
100
AcDbEntity
  8
0
  6
Continuous
 62
     7
370
    15
100
AcDbLine
 10
0.3953850163203549
 20
0.6905035678008762
 30
0.0
 11
-0.3533848778500051
 21
0.0849681848447458
 31
0.0
  0
POINT
  5
F48
330
1F
100
AcDbEntity
  8
0
  6
Continuous
 62
     7
370
    15
100
AcDbPoint
 10
-0.3369897856013495
 20
0.0727389634751052
 30
0.0
  0
POINT
  5
F49
330
1F
100
AcDbEntity
  8
0
  6
Continuous
 62
     7
370
    15
100
AcDbPoint
 10
-0.2969311353037824
 20
-0.001584971884764
 30
0.0
  0
LINE
  5
F4A
330
1F
100
AcDbEntity
  8
S&C_cotas
  6
Continuous
370
    -2
100
AcDbLine
 10
-0.4405100735634904
 20
0.0749569536438764
 30
0.0
 11
-0.5343314045649372
 21
0.0749232531095041
 31
0.0
  0
LINE
  5
F4B
330
1F
100
AcDbEntity
  8
S&C_cotas
  6
Continuous
370
    -2
100
AcDbLine
 10
-0.442813224040975
 20
-0.001584971884764
 30
0.0
 11
-0.6902588577047275
 21
-0.001584971884764
 31
0.0
  0
POINT
  5
1299
330
1F
100
AcDbEntity
  8
0
  6
Continuous
 62
     7
370
    15
100
AcDbPoint
 10
-0.3684663063673554
 20
0.0409682742108561
 30
0.0
  0
POINT
  5
129A
330
1F
100
AcDbEntity
  8
0
  6
Continuous
 62
     7
370
    15
100
AcDbPoint
 10
1.436533693632629
 20
0.0409682742108561
 30
0.0
  0
LINE
  5
129B
330
1F
100
AcDbEntity
  8
S&C_cotas
  6
Continuous
370
    -2
100
AcDbLine
 10
-0.3684663063673554
 20
-0.0479158478079497
 30
0.0
 11
-0.3684663063673554
 21
-0.1495029826621399
 31
0.0
  0
LINE
  5
129C
330
1F
100
AcDbEntity
  8
S&C_cotas
  6
Continuous
370
    -2
100
AcDbLine
 10
1.436533693632629
 20
-0.0479158478079498
 30
0.0
 11
1.436533693632629
 21
-0.1495029826621399
 31
0.0
  0
MTEXT
  5
129D
330
1F
100
AcDbEntity
  8
S&C_cotas
  6
Continuous
100
AcDbMText
 10
0.5340336936326369
 20
-0.1031326557066355
 30
0.0
 40
0.02
 41
0.0
 71
     5
 72
     1
  1
{Ø180 cm / 70.2"}
  7
ARIAL
 73
     1
 44
1.0
1001
ACAD
1000
ACAD_MTEXT_DEFINED_HEIGHT_BEGIN
1070
    46
1040
0.0340533333333333
1000
ACAD_MTEXT_DEFINED_HEIGHT_END
  0
LINE
  5
12A0
330
1F
100
AcDbEntity
  8
0
  6
Continuous
 62
     7
370
    15
100
AcDbLine
 10
-0.3352022272734303
 20
0.0677273649835151
 30
0.0
 11
-0.3212962018343027
 21
0.0409682742108561
 31
0.0
  0
LINE
  5
12A1
330
1F
100
AcDbEntity
  8
0
  6
Continuous
 62
     7
370
    15
100
AcDbLine
 10
1.403269614538704
 20
0.0677273649835151
 30
0.0
 11
1.389363589099576
 21
0.0409682742108561
 31
0.0
  0
LINE
  5
12A2
330
1F
100
AcDbEntity
  8
0
  6
Continuous
 62
     7
370
    15
100
AcDbLine
 10
-0.3057059575050867
 20
0.0109682742108852
 30
0.0
 11
-0.3017906648306507
 21
0.0034341536575049
 31
0.0
  0
LINE
  5
12A3
330
1F
100
AcDbEntity
  8
0
  6
Continuous
 62
     7
370
    15
100
AcDbLine
 10
1.373773344770359
 20
0.0109682742108852
 30
0.0
 11
1.369858052095923
 21
0.0034341536575049
 31
0.0
  0
MTEXT
  5
12A4
330
1F
100
AcDbEntity
  8
S&C_cotas
  6
Continuous
100
AcDbMText
 10
-0.5588230538684322
 20
0.0591349788898085
 30
0.0
 40
0.0142585551330799
 41
0.0
 71
     5
 72
     1
  1
8 cm / 3.1"
  7
ARIAL
 11
6.245004513516506E-17
 21
1.0
 31
0.0
 73
     1
 44
1.0
  0
MTEXT
  5
12A7
330
1F
100
AcDbEntity
  8
S&C_cotas
  6
Continuous
 62
   252
100
AcDbMText
 10
0.5223497991363337
 20
0.8233262692991559
 30
0.0
 40
0.02
 41
0.0
 71
     5
 72
     1
  1
%%c32 cm / 12.6"
  7
ARIAL
 73
     1
 44
1.0
  0
LINE
  5
1302
330
1F
100
AcDbEntity
  8
0
  6
Continuous
 62
     7
370
    15
100
AcDbLine
 10
0.3738365025901689
 20
-1.130930987577494
 30
0.0
 11
-0.320926321941526
 21
-1.130971303622905
 31
0.0
  0
CIRCLE
  5
148D
330
1F
100
AcDbEntity
  8
0
100
AcDbCircle
 10
0.5339000045498132
 20
-1.130930987577491
 30
0.0
 40
0.1600635019596443
  0
LINE
  5
1490
330
1F
100
AcDbEntity
  8
0
100
AcDbLine
 10
0.5360058139857997
 20
0.0849682742107252
 30
0.0
 11
0.5360058139857997
 21
0.6869035683283755
 31
0.0
  0
LINE
  5
1492
330
1F
100
AcDbEntity
  8
0
100
AcDbLine
 10
0.5295859379496364
 20
0.0835540606483445
 30
0.0
 11
0.5425859379496123
 21
0.0835540606483445
 31
0.0
  0
LINE
  5
1495
330
1F
100
AcDbEntity
  8
0
  6
Continuous
 62
     7
370
    15
100
AcDbLine
 10
-0.3588848778499887
 20
0.0849681848447458
 30
0.0
 11
-0.3478848778500214
 21
0.0849681848447458
 31
0.0
  0
LINE
  5
1496
330
1F
100
AcDbEntity
  8
0
  6
Continuous
 62
     7
370
    15
100
AcDbLine
 10
-0.3588848778499887
 20
0.0759681848448467
 30
0.0
 11
-0.3598848778500219
 21
0.0759681848448467
 31
0.0
  0
LINE
  5
1497
330
1F
100
AcDbEntity
  8
0
  6
Continuous
 62
     7
370
    15
100
AcDbLine
 10
-0.346884877850046
 20
0.0759681848448467
 30
0.0
 11
-0.3478848778500214
 21
0.0759681848448467
 31
0.0
  0
LINE
  5
1498
330
1F
100
AcDbEntity
  8
0
  6
Continuous
 62
     7
370
    15
100
AcDbLine
 10
-0.3588848778499887
 20
0.0759681848448467
 30
0.0
 11
-0.3558848778500312
 21
0.0759681848448467
 31
0.0
  0
LINE
  5
1499
330
1F
100
AcDbEntity
  8
0
  6
Continuous
 62
     7
370
    15
100
AcDbLine
 10
-0.3588848778499887
 20
0.0749681848447566
 30
0.0
 11
-0.3588848778499887
 21
0.0759681848448467
 31
0.0
  0
LINE
  5
149A
330
1F
100
AcDbEntity
  8
0
  6
Continuous
 62
     7
370
    15
100
AcDbLine
 10
-0.3508848778500357
 20
0.0759681848448467
 30
0.0
 11
-0.3558848778500312
 21
0.0759681848448467
 31
0.0
  0
LINE
  5
149B
330
1F
100
AcDbEntity
  8
0
  6
Continuous
 62
     7
370
    15
100
AcDbLine
 10
-0.3508848778500357
 20
0.0759681848448467
 30
0.0
 11
-0.3478848778500214
 21
0.0759681848448467
 31
0.0
  0
LINE
  5
149C
330
1F
100
AcDbEntity
  8
0
  6
Continuous
 62
     7
370
    15
100
AcDbLine
 10
-0.3478848778500214
 20
0.0759681848448467
 30
0.0
 11
-0.3478848778500214
 21
0.0749681848447566
 31
0.0
  0
LINE
  5
149D
330
1F
100
AcDbEntity
  8
0
  6
Continuous
 62
     7
370
    15
100
AcDbLine
 10
-0.3478848778500214
 20
0.073647368819545
 30
0.0
 11
-0.3478848778500214
 21
0.0711674435653454
 31
0.0
  0
LINE
  5
149E
330
1F
100
AcDbEntity
  8
0
  6
Continuous
 62
     7
370
    15
100
AcDbLine
 10
-0.3588848778499887
 20
0.073647368819545
 30
0.0
 11
-0.3588848778499887
 21
0.0711674435653454
 31
0.0
  0
ARC
  5
149F
330
1F
100
AcDbEntity
  8
0
  6
Continuous
 62
     7
370
    15
100
AcDbCircle
 10
-0.3562042338467399
 20
0.0711783667025562
 30
0.0
 40
0.0026806662290849
100
AcDbArc
 50
180.2334727241798
 51
215.5635555537073
  0
ARC
  5
14A0
330
1F
100
AcDbEntity
  8
0
  6
Continuous
 62
     7
370
    15
100
AcDbCircle
 10
-0.3505078350089471
 20
0.0711680716917029
 30
0.0
 40
0.0026229572043737
100
AcDbArc
 50
324.0349515214378
 51
359.9862750164069
  0
LINE
  5
14A1
330
1F
100
AcDbEntity
  8
0
  6
Continuous
 62
     7
370
    15
100
AcDbLine
 10
-0.3478848778500214
 20
0.0739681848447767
 30
0.0
 11
-0.3478848778500214
 21
0.073647368819545
 31
0.0
  0
LINE
  5
14A2
330
1F
100
AcDbEntity
  8
0
  6
Continuous
 62
     7
370
    15
100
AcDbLine
 10
-0.3588848778499887
 20
0.0739681848447767
 30
0.0
 11
-0.3588848778499887
 21
0.073647368819545
 31
0.0
  0
LINE
  5
14A3
330
1F
100
AcDbEntity
  8
0
  6
Continuous
 62
     7
370
    15
100
AcDbLine
 10
-0.3478848778500214
 20
0.0739681848447767
 30
0.0
 11
-0.3508848778500357
 21
0.0739681848447767
 31
0.0
  0
LINE
  5
14A4
330
1F
100
AcDbEntity
  8
0
  6
Continuous
 62
     7
370
    15
100
AcDbLine
 10
-0.3478848778500214
 20
0.0749681848447566
 30
0.0
 11
-0.3478848778500214
 21
0.0739681848447767
 31
0.0
  0
LINE
  5
14A5
330
1F
100
AcDbEntity
  8
0
  6
Continuous
 62
     7
370
    15
100
AcDbLine
 10
-0.3588848778499887
 20
0.0739681848447767
 30
0.0
 11
-0.3588848778499887
 21
0.0749681848447566
 31
0.0
  0
LINE
  5
14A6
330
1F
100
AcDbEntity
  8
0
  6
Continuous
 62
     7
370
    15
100
AcDbLine
 10
-0.3558848778500312
 20
0.0739681848447767
 30
0.0
 11
-0.3588848778499887
 21
0.0739681848447767
 31
0.0
  0
LINE
  5
14A7
330
1F
100
AcDbEntity
  8
0
  6
Continuous
 62
     7
370
    15
100
AcDbLine
 10
-0.3508848778500357
 20
0.0739681848447767
 30
0.0
 11
-0.3558848778500312
 21
0.0739681848447767
 31
0.0
  0
LINE
  5
14A8
330
1F
100
AcDbEntity
  8
0
  6
Continuous
 62
     7
370
    15
100
AcDbLine
 10
-0.3483848778500371
 20
0.0429681848449467
 30
0.0
 11
-0.3583848778500289
 21
0.0429681848449467
 31
0.0
  0
LINE
  5
14A9
330
1F
100
AcDbEntity
  8
0
  6
Continuous
 62
     7
370
    15
100
AcDbLine
 10
-0.3588848778499887
 20
0.0849681848447458
 30
0.0
 11
-0.3595919846311808
 21
0.0842610780635554
 31
0.0
  0
LINE
  5
14AA
330
1F
100
AcDbEntity
  8
0
  6
Continuous
 62
     7
370
    15
100
AcDbLine
 10
-0.3471777710688293
 20
0.0842610780635554
 30
0.0
 11
-0.3478848778500214
 21
0.0849681848447458
 31
0.0
  0
LINE
  5
14AB
330
1F
100
AcDbEntity
  8
0
  6
Continuous
 62
     7
370
    15
100
AcDbLine
 10
-0.3598848778500219
 20
0.0835539712823651
 30
0.0
 11
-0.3598848778500219
 21
0.0759681848448467
 31
0.0
  0
LINE
  5
14AC
330
1F
100
AcDbEntity
  8
0
  6
Continuous
 62
     7
370
    15
100
AcDbLine
 10
-0.346884877850046
 20
0.0759681848448467
 30
0.0
 11
-0.346884877850046
 21
0.0835539712823651
 31
0.0
  0
ARC
  5
14AD
330
1F
100
AcDbEntity
  8
0
  6
Continuous
 62
     7
370
    15
100
AcDbCircle
 10
-0.3478848778500214
 20
0.0835539712823651
 30
0.0
 40
0.0010000000000048
100
AcDbArc
 50
0.0
 51
44.99999999999832
  0
ARC
  5
14AE
330
1F
100
AcDbEntity
  8
0
  6
Continuous
 62
     7
370
    15
100
AcDbCircle
 10
-0.3588848778499887
 20
0.0835539712823651
 30
0.0
 40
0.0010000000000079
100
AcDbArc
 50
134.9999999999994
 51
179.9999999999992
  0
LINE
  5
14AF
330
1F
100
AcDbEntity
  8
0
  6
Continuous
 62
     7
370
    15
100
AcDbLine
 10
-0.3573848780399949
 20
0.0429681841806763
 30
0.0
 11
-0.3573848780399949
 21
0.0409681857153751
 31
0.0
  0
LINE
  5
14B0
330
1F
100
AcDbEntity
  8
0
  6
Continuous
 62
     7
370
    15
100
AcDbLine
 10
-0.3493848776600152
 20
0.0409681857153751
 30
0.0
 11
-0.3493848776600152
 21
0.0429681841806763
 31
0.0
  0
LINE
  5
14B1
330
1F
100
AcDbEntity
  8
0
  6
Continuous
 62
     7
370
    15
100
AcDbLine
 10
-0.3583848777382463
 20
0.0739681836740368
 30
0.0
 11
-0.3583848778500289
 21
0.0429681848449467
 31
0.0
  0
LINE
  5
14B2
330
1F
100
AcDbEntity
  8
0
  6
Continuous
 62
     7
370
    15
100
AcDbLine
 10
-0.3483848778500371
 20
0.0429681848449467
 30
0.0
 11
-0.3483848779617922
 21
0.0614852276222068
 31
0.0
  0
LINE
  5
14B3
330
1F
100
AcDbEntity
  8
0
  6
Continuous
 62
     7
370
    15
100
AcDbLine
 10
-0.3483848779617922
 20
0.0614852276222068
 30
0.0
 11
-0.3483848779617922
 21
0.0739681836740368
 31
0.0
  0
LINE
  5
14B5
330
1F
100
AcDbEntity
  8
0
100
AcDbLine
 10
-0.3598848778500219
 20
0.0835539712823651
 30
0.0
 11
-0.346884877850046
 21
0.0835539712823651
 31
0.0
  0
LINE
  5
14B8
330
1F
100
AcDbEntity
  8
0
100
AcDbLine
 10
-0.3339970222263356
 20
0.0749585991256689
 30
0.0
 11
-0.3478848778500214
 21
0.0749681848447566
 31
0.0
  0
LINE
  5
14B9
330
1F
100
AcDbEntity
  8
0
100
AcDbLine
 10
-0.3639303015336794
 20
0.0749804046527666
 30
0.0
 11
-0.3588848778499887
 21
0.0749681848447566
 31
0.0
  0
LINE
  5
14BA
330
1F
100
AcDbEntity
  8
0
  6
Continuous
 62
     7
370
    15
100
AcDbLine
 10
1.431997709268666
 20
0.0759681848448467
 30
0.0
 11
1.430497709268644
 21
0.0759681848448467
 31
0.0
  0
LINE
  5
14BB
330
1F
100
AcDbEntity
  8
0
  6
Continuous
 62
     7
370
    15
100
AcDbLine
 10
1.426569506038356
 20
0.0759681848448467
 30
0.0
 11
1.430497709268644
 21
0.0759681848448467
 31
0.0
  0
LINE
  5
14BC
330
1F
100
AcDbEntity
  8
0
  6
Continuous
 62
     7
370
    15
100
AcDbLine
 10
1.405382972558891
 20
0.0759681848448467
 30
0.0
 11
1.420569506038356
 21
0.0759681848448467
 31
0.0
  0
ARC
  5
14BD
330
1F
100
AcDbEntity
  8
0
  6
Continuous
 62
     7
370
    15
100
AcDbCircle
 10
1.399905939746128
 20
0.0727917422166852
 30
0.0
 40
0.003176524802526
100
AcDbArc
 50
90.41423508424289
 51
136.4480807273157
  0
LINE
  5
14BE
330
1F
100
AcDbEntity
  8
0
  6
Continuous
 62
     7
370
    15
100
AcDbLine
 10
1.405382972558891
 20
0.0759681848448467
 30
0.0
 11
1.399882972558879
 21
0.0759681848448467
 31
0.0
  0
LINE
  5
14BF
330
1F
100
AcDbEntity
  8
0
  6
Continuous
 62
     7
370
    15
100
AcDbLine
 10
1.431997709268666
 20
0.0759681848448467
 30
0.0
 11
1.431997688798981
 21
0.0749804046527666
 31
0.0
  0
ARC
  5
14C2
330
1F
100
AcDbEntity
  8
0
  6
Continuous
 62
     7
370
    15
100
AcDbCircle
 10
1.403217773629467
 20
0.0719537180062861
 30
0.0
 40
0.0019999999999875
100
AcDbArc
 50
332.4611766495337
 51
23.11779234247877
  0
POINT
  5
14C3
330
1F
100
AcDbEntity
  8
0
  6
Continuous
 62
     7
370
    15
100
AcDbPoint
 10
1.405057172866651
 20
0.0727389634751052
 30
0.0
  0
LINE
  5
14C6
330
1F
100
AcDbEntity
  8
0
  6
Continuous
 62
     7
370
    15
100
AcDbLine
 10
1.42695226511529
 20
0.0849681848447458
 30
0.0
 11
1.415952265115323
 21
0.0849681848447458
 31
0.0
  0
LINE
  5
14C7
330
1F
100
AcDbEntity
  8
0
  6
Continuous
 62
     7
370
    15
100
AcDbLine
 10
1.42695226511529
 20
0.0759681848448467
 30
0.0
 11
1.427952265115323
 21
0.0759681848448467
 31
0.0
  0
LINE
  5
14C8
330
1F
100
AcDbEntity
  8
0
  6
Continuous
 62
     7
370
    15
100
AcDbLine
 10
1.414952265115347
 20
0.0759681848448467
 30
0.0
 11
1.415952265115323
 21
0.0759681848448467
 31
0.0
  0
LINE
  5
14C9
330
1F
100
AcDbEntity
  8
0
  6
Continuous
 62
     7
370
    15
100
AcDbLine
 10
1.42695226511529
 20
0.0759681848448467
 30
0.0
 11
1.423952265115333
 21
0.0759681848448467
 31
0.0
  0
LINE
  5
14CA
330
1F
100
AcDbEntity
  8
0
  6
Continuous
 62
     7
370
    15
100
AcDbLine
 10
1.42695226511529
 20
0.0749681848447566
 30
0.0
 11
1.42695226511529
 21
0.0759681848448467
 31
0.0
  0
LINE
  5
14CB
330
1F
100
AcDbEntity
  8
0
  6
Continuous
 62
     7
370
    15
100
AcDbLine
 10
1.418952265115337
 20
0.0759681848448467
 30
0.0
 11
1.423952265115333
 21
0.0759681848448467
 31
0.0
  0
LINE
  5
14CC
330
1F
100
AcDbEntity
  8
0
  6
Continuous
 62
     7
370
    15
100
AcDbLine
 10
1.418952265115337
 20
0.0759681848448467
 30
0.0
 11
1.415952265115323
 21
0.0759681848448467
 31
0.0
  0
LINE
  5
14CD
330
1F
100
AcDbEntity
  8
0
  6
Continuous
 62
     7
370
    15
100
AcDbLine
 10
1.415952265115323
 20
0.0759681848448467
 30
0.0
 11
1.415952265115323
 21
0.0749681848447566
 31
0.0
  0
LINE
  5
14CE
330
1F
100
AcDbEntity
  8
0
  6
Continuous
 62
     7
370
    15
100
AcDbLine
 10
1.415952265115323
 20
0.073647368819545
 30
0.0
 11
1.415952265115323
 21
0.0711674435653454
 31
0.0
  0
LINE
  5
14CF
330
1F
100
AcDbEntity
  8
0
  6
Continuous
 62
     7
370
    15
100
AcDbLine
 10
1.42695226511529
 20
0.073647368819545
 30
0.0
 11
1.42695226511529
 21
0.0711674435653454
 31
0.0
  0
ARC
  5
14D0
330
1F
100
AcDbEntity
  8
0
  6
Continuous
 62
     7
370
    15
100
AcDbCircle
 10
1.424271621112041
 20
0.0711783667025562
 30
0.0
 40
0.0026806662290849
100
AcDbArc
 50
324.4364444462926
 51
359.76652727582
  0
ARC
  5
14D1
330
1F
100
AcDbEntity
  8
0
  6
Continuous
 62
     7
370
    15
100
AcDbCircle
 10
1.418575222274249
 20
0.0711680716917029
 30
0.0
 40
0.0026229572043738
100
AcDbArc
 50
180.0137249835915
 51
215.9650484785608
  0
LINE
  5
14D2
330
1F
100
AcDbEntity
  8
0
  6
Continuous
 62
     7
370
    15
100
AcDbLine
 10
1.415952265115323
 20
0.0739681848447767
 30
0.0
 11
1.415952265115323
 21
0.073647368819545
 31
0.0
  0
LINE
  5
14D3
330
1F
100
AcDbEntity
  8
0
  6
Continuous
 62
     7
370
    15
100
AcDbLine
 10
1.42695226511529
 20
0.0739681848447767
 30
0.0
 11
1.42695226511529
 21
0.073647368819545
 31
0.0
  0
LINE
  5
14D4
330
1F
100
AcDbEntity
  8
0
  6
Continuous
 62
     7
370
    15
100
AcDbLine
 10
1.415952265115323
 20
0.0739681848447767
 30
0.0
 11
1.418952265115337
 21
0.0739681848447767
 31
0.0
  0
LINE
  5
14D5
330
1F
100
AcDbEntity
  8
0
  6
Continuous
 62
     7
370
    15
100
AcDbLine
 10
1.415952265115323
 20
0.0749681848447566
 30
0.0
 11
1.415952265115323
 21
0.0739681848447767
 31
0.0
  0
LINE
  5
14D6
330
1F
100
AcDbEntity
  8
0
  6
Continuous
 62
     7
370
    15
100
AcDbLine
 10
1.42695226511529
 20
0.0739681848447767
 30
0.0
 11
1.42695226511529
 21
0.0749681848447566
 31
0.0
  0
LINE
  5
14D7
330
1F
100
AcDbEntity
  8
0
  6
Continuous
 62
     7
370
    15
100
AcDbLine
 10
1.423952265115333
 20
0.0739681848447767
 30
0.0
 11
1.42695226511529
 21
0.0739681848447767
 31
0.0
  0
LINE
  5
14D8
330
1F
100
AcDbEntity
  8
0
  6
Continuous
 62
     7
370
    15
100
AcDbLine
 10
1.418952265115337
 20
0.0739681848447767
 30
0.0
 11
1.423952265115333
 21
0.0739681848447767
 31
0.0
  0
LINE
  5
14D9
330
1F
100
AcDbEntity
  8
0
  6
Continuous
 62
     7
370
    15
100
AcDbLine
 10
1.416452265115339
 20
0.0429681848449467
 30
0.0
 11
1.42645226511533
 21
0.0429681848449467
 31
0.0
  0
LINE
  5
14DA
330
1F
100
AcDbEntity
  8
0
  6
Continuous
 62
     7
370
    15
100
AcDbLine
 10
1.42695226511529
 20
0.0849681848447458
 30
0.0
 11
1.427659371896482
 21
0.0842610780635554
 31
0.0
  0
LINE
  5
14DB
330
1F
100
AcDbEntity
  8
0
  6
Continuous
 62
     7
370
    15
100
AcDbLine
 10
1.415245158334131
 20
0.0842610780635554
 30
0.0
 11
1.415952265115323
 21
0.0849681848447458
 31
0.0
  0
LINE
  5
14DC
330
1F
100
AcDbEntity
  8
0
  6
Continuous
 62
     7
370
    15
100
AcDbLine
 10
1.427952265115323
 20
0.0835539712823651
 30
0.0
 11
1.427952265115323
 21
0.0759681848448467
 31
0.0
  0
LINE
  5
14DD
330
1F
100
AcDbEntity
  8
0
  6
Continuous
 62
     7
370
    15
100
AcDbLine
 10
1.414952265115347
 20
0.0759681848448467
 30
0.0
 11
1.414952265115347
 21
0.0835539712823651
 31
0.0
  0
ARC
  5
14DE
330
1F
100
AcDbEntity
  8
0
  6
Continuous
 62
     7
370
    15
100
AcDbCircle
 10
1.415952265115323
 20
0.0835539712823651
 30
0.0
 40
0.0010000000000048
100
AcDbArc
 50
134.9999999999989
 51
179.9999999999992
  0
ARC
  5
14DF
330
1F
100
AcDbEntity
  8
0
  6
Continuous
 62
     7
370
    15
100
AcDbCircle
 10
1.42695226511529
 20
0.0835539712823651
 30
0.0
 40
0.0010000000000079
100
AcDbArc
 50
0.0000000000007951
 51
45.00000000000057
  0
LINE
  5
14E0
330
1F
100
AcDbEntity
  8
0
  6
Continuous
 62
     7
370
    15
100
AcDbLine
 10
1.425452265305296
 20
0.0429681841806763
 30
0.0
 11
1.425452265305296
 21
0.0409681857153751
 31
0.0
  0
LINE
  5
14E1
330
1F
100
AcDbEntity
  8
0
  6
Continuous
 62
     7
370
    15
100
AcDbLine
 10
1.417452264925317
 20
0.0409681857153751
 30
0.0
 11
1.417452264925317
 21
0.0429681841806763
 31
0.0
  0
LINE
  5
14E2
330
1F
100
AcDbEntity
  8
0
  6
Continuous
 62
     7
370
    15
100
AcDbLine
 10
1.426452265003548
 20
0.0739681836740368
 30
0.0
 11
1.42645226511533
 21
0.0429681848449467
 31
0.0
  0
LINE
  5
14E3
330
1F
100
AcDbEntity
  8
0
  6
Continuous
 62
     7
370
    15
100
AcDbLine
 10
1.416452265115339
 20
0.0429681848449467
 30
0.0
 11
1.416452265227094
 21
0.0614852276222068
 31
0.0
  0
LINE
  5
14E4
330
1F
100
AcDbEntity
  8
0
  6
Continuous
 62
     7
370
    15
100
AcDbLine
 10
1.416452265227094
 20
0.0614852276222068
 30
0.0
 11
1.416452265227094
 21
0.0739681836740368
 31
0.0
  0
LINE
  5
14E5
330
1F
100
AcDbEntity
  8
0
100
AcDbLine
 10
1.427952265115323
 20
0.0835539712823651
 30
0.0
 11
1.414952265115347
 21
0.0835539712823651
 31
0.0
  0
LINE
  5
14E6
330
1F
100
AcDbEntity
  8
0
100
AcDbLine
 10
1.402064409491637
 20
0.0749585991256689
 30
0.0
 11
1.415952265115323
 21
0.0749681848447566
 31
0.0
  0
LINE
  5
14E7
330
1F
100
AcDbEntity
  8
0
100
AcDbLine
 10
1.431997688798981
 20
0.0749804046527666
 30
0.0
 11
1.42695226511529
 21
0.0749681848447566
 31
0.0
  0
LINE
  5
150A
330
1F
100
AcDbEntity
  8
S&C_cotas
  6
Continuous
370
    -2
100
AcDbLine
 10
0.3543167812404408
 20
0.6905372683352485
 30
0.0
 11
0.260495450238994
 21
0.6905035678008762
 31
0.0
  0
CIRCLE
  5
1CB4
330
1F
100
AcDbEntity
  8
0
100
AcDbCircle
 10
0.5339000045498132
 20
-1.130930987577491
 30
0.0
 40
0.9023663109171687
  0
CIRCLE
  5
1CB5
330
1F
100
AcDbEntity
  8
0
100
AcDbCircle
 10
0.5339000045498132
 20
-1.130930987577491
 30
0.0
 40
0.8708237864157788
  0
CIRCLE
  5
1CB6
330
1F
100
AcDbEntity
  8
0
100
AcDbCircle
 10
0.5339000045498132
 20
-1.130930987577491
 30
0.0
 40
0.8347953369651244
  0
CIRCLE
  5
1D50
330
1F
100
AcDbEntity
  8
0
  6
Continuous
 62
     7
370
    15
100
AcDbCircle
 10
0.0939868575579749
 20
-1.892882909084872
 30
0.0
 40
0.0064999999999884
  0
CIRCLE
  5
1D51
330
1F
100
AcDbEntity
  8
0
  6
Continuous
 62
     7
370
    15
100
AcDbCircle
 10
0.0939868575579749
 20
-1.892882909084872
 30
0.0
 40
0.000550000000004
  0
CIRCLE
  5
1D52
330
1F
100
AcDbEntity
  8
0
  6
Continuous
 62
     7
370
    15
100
AcDbCircle
 10
0.0939868575579749
 20
-1.892882909084872
 30
0.0
 40
0.0055000000000121
  0
LINE
  5
1D53
330
1F
100
AcDbEntity
  8
0
  6
Continuous
 62
     7
370
    15
100
AcDbLine
 10
0.0874912643893927
 20
-1.893122463100112
 30
0.0
 11
0.0852169912868005
 21
-1.89704697507666
 31
0.0
  0
LINE
  5
1D54
330
1F
100
AcDbEntity
  8
0
  6
Continuous
 62
     7
370
    15
100
AcDbLine
 10
0.0997574735069287
 20
-1.871955654330108
 30
0.0
 11
0.0909650385487221
 21
-1.887128015297309
 31
0.0
  0
LINE
  5
1D55
330
1F
100
AcDbEntity
  8
0
  6
Continuous
 62
     7
370
    15
100
AcDbLine
 10
0.0970086650874634
 20
-1.898637777422057
 30
0.0
 11
0.0947343888113453
 21
-1.902562330401548
 31
0.0
  0
LINE
  5
1D56
330
1F
100
AcDbEntity
  8
0
  6
Continuous
 62
     7
370
    15
100
AcDbLine
 10
0.1092748710314627
 20
-1.877471009654996
 30
0.0
 11
0.1004824391504426
 21
-1.892643389223792
 31
0.0
  0
LINE
  5
1D57
330
1F
100
AcDbEntity
  8
0
  6
Continuous
 62
     7
370
    15
100
AcDbLine
 10
0.0991582641831071
 20
-1.888945105367825
 30
0.0
 11
0.1035656483896223
 21
-1.881339652776291
 31
0.0
  0
LINE
  5
1D58
330
1F
100
AcDbEntity
  8
0
  6
Continuous
 62
     7
370
    15
100
AcDbLine
 10
0.0922439280808159
 20
-1.900876619389159
 30
0.0
 11
0.0931415305569757
 21
-1.899327724267357
 31
0.0
  0
ARC
  5
1D59
330
1F
100
AcDbEntity
  8
0
  6
Continuous
 62
     7
370
    15
100
AcDbCircle
 10
0.0974966291283903
 20
-1.886826383387455
 30
0.0
 40
0.0150000000000123
100
AcDbArc
 50
230.3135341632081
 51
249.5016706169272
  0
LINE
  5
1D5A
330
1F
100
AcDbEntity
  8
0
  6
Continuous
 62
     7
370
    15
100
AcDbLine
 10
0.0888154393569573
 20
-1.896820746956138
 30
0.0
 11
0.0879178382969703
 21
-1.898369639696035
 31
0.0
  0
LINE
  5
1D5B
330
1F
100
AcDbEntity
  8
0
  6
Continuous
 62
     7
370
    15
100
AcDbLine
 10
0.0992395586057784
 20
-1.878832673083167
 30
0.0
 11
0.0948322027852604
 21
-1.886438128104665
 31
0.0
  0
ARC
  5
1D5C
330
1F
100
AcDbEntity
  8
0
  6
Continuous
 62
     7
370
    15
100
AcDbCircle
 10
0.0939868575579749
 20
-1.892882909084872
 30
0.0
 40
0.0150000000000123
100
AcDbArc
 50
50.31353416320809
 51
69.50167061693378
  0
LINE
  5
1D5D
330
1F
100
AcDbEntity
  8
0
  6
Continuous
 62
     7
370
    15
100
AcDbLine
 10
0.0906345471250404
 20
-1.903653796455973
 30
0.0
 11
0.0863084573411947
 21
-1.901146816762849
 31
0.0
  0
ARC
  5
1D5E
330
1F
100
AcDbEntity
  8
0
  6
Continuous
 62
     7
370
    15
100
AcDbCircle
 10
0.0921387349411058
 20
-1.901058142585652
 30
0.0
 40
0.0029999999999725
100
AcDbArc
 50
239.9076023905661
 51
329.9076023905853
  0
ARC
  5
1D5F
330
1F
100
AcDbEntity
  8
0
  6
Continuous
 62
     7
370
    15
100
AcDbCircle
 10
0.0878126451571499
 20
-1.898551162892528
 30
0.0
 40
0.0030000000000113
100
AcDbArc
 50
149.9076023903679
 51
239.9076023903718
  0
ARC
  5
1D60
330
1F
100
AcDbEntity
  8
0
  6
Continuous
 62
     7
370
    15
100
AcDbCircle
 10
64.31362425483889
 20
-39.08180133107751
 30
0.0
 40
74.21585613144192
100
AcDbArc
 50
149.9060161722234
 51
149.9091042359115
  0
LWPOLYLINE
  5
1D61
330
1F
100
AcDbEntity
  8
0
  6
Continuous
 62
     7
370
    15
100
AcDbPolyline
 90
        8
 70
   128
 43
0.0
 10
0.1112804684772855
 20
-1.874010127370342
 10
0.111270367190039
 20
-1.87402754546183
 10
0.1111620022900445
 20
-1.874214529535821
 10
0.1109408792502019
 20
-1.874596120003466
 10
0.1106201477941805
 20
-1.875149569066705
 10
0.1102190540837383
 20
-1.875841737734795
 10
0.1097615067017584
 20
-1.876631269084143
 10
0.1092748806678487
 20
-1.877471000320861
  0
ARC
  5
1D62
330
1F
100
AcDbEntity
  8
0
  6
Continuous
 62
     7
370
    15
100
AcDbCircle
 10
0.088628963370699
 20
-1.907114668283096
 30
0.0
 40
0.0029999999999725
100
AcDbArc
 50
239.9076023905693
 51
329.9076023905767
  0
LINE
  5
1D63
330
1F
100
AcDbEntity
  8
0
  6
Continuous
 62
     7
370
    15
100
AcDbLine
 10
0.0947343888113453
 20
-1.902562330401548
 30
0.0
 11
0.0912246172409387
 21
-1.908618856098964
 31
0.0
  0
LINE
  5
1D64
330
1F
100
AcDbEntity
  8
0
  6
Continuous
 62
     7
370
    15
100
AcDbLine
 10
0.0887341565104108
 20
-1.906933145086603
 30
0.0
 11
0.0906345471250404
 21
-1.903653796455973
 31
0.0
  0
ARC
  5
1D65
330
1F
100
AcDbEntity
  8
0
  6
Continuous
 62
     7
370
    15
100
AcDbCircle
 10
0.0939868575579749
 20
-1.892882909084872
 30
0.0
 40
0.0150000000000123
100
AcDbArc
 50
230.3135341632062
 51
249.5016706169263
  0
LINE
  5
1D66
330
1F
100
AcDbEntity
  8
0
  6
Continuous
 62
     7
370
    15
100
AcDbLine
 10
0.0863084573411947
 20
-1.901146816762849
 30
0.0
 11
0.0844080667265653
 21
-1.90442616539348
 31
0.0
  0
LINE
  5
1D67
330
1F
100
AcDbEntity
  8
0
  6
Continuous
 62
     7
370
    15
100
AcDbLine
 10
0.0871247755546355
 20
-1.909710322153445
 30
0.0
 11
0.0827986857709088
 21
-1.907203342460322
 31
0.0
  0
LINE
  5
1D68
330
1F
100
AcDbEntity
  8
0
  6
Continuous
 62
     7
370
    15
100
AcDbLine
 10
0.0852169912868005
 20
-1.89704697507666
 30
0.0
 11
0.0817072197163955
 21
-1.903103500774076
 31
0.0
  0
ARC
  5
1D69
330
1F
100
AcDbEntity
  8
0
  6
Continuous
 62
     7
370
    15
100
AcDbCircle
 10
0.0843028735867452
 20
-1.904607688589973
 30
0.0
 40
0.0030000000000113
100
AcDbArc
 50
149.9076023903779
 51
239.9076023903694
  0
LINE
  5
1D6A
330
1F
100
AcDbEntity
  8
0
  6
Continuous
 62
     7
370
    15
100
AcDbLine
 10
0.1112804547859233
 20
-1.874010137827873
 30
0.0
 11
0.1017630572613801
 21
-1.868494782502984
 31
0.0
  0
LINE
  5
1D6B
330
1F
100
AcDbEntity
  8
0
  6
Continuous
 62
     7
370
    15
100
AcDbLine
 10
0.4538682535699929
 20
-1.269550046493245
 30
0.0
 11
0.1065217560236515
 21
-1.871252460165429
 31
0.0
  0
CIRCLE
  5
1D6C
330
1F
100
AcDbEntity
  8
0
  6
Continuous
 62
     7
370
    15
100
AcDbCircle
 10
0.9738131515416517
 20
-1.892882909084871
 30
0.0
 40
0.0064999999999884
  0
CIRCLE
  5
1D6D
330
1F
100
AcDbEntity
  8
0
  6
Continuous
 62
     7
370
    15
100
AcDbCircle
 10
0.9738131515416517
 20
-1.892882909084871
 30
0.0
 40
0.000550000000004
  0
CIRCLE
  5
1D6E
330
1F
100
AcDbEntity
  8
0
  6
Continuous
 62
     7
370
    15
100
AcDbCircle
 10
0.9738131515416517
 20
-1.892882909084871
 30
0.0
 40
0.0055000000000121
  0
LINE
  5
1D6F
330
1F
100
AcDbEntity
  8
0
  6
Continuous
 62
     7
370
    15
100
AcDbLine
 10
0.9707728148201376
 20
-1.898628034789132
 30
0.0
 11
0.973034405337988
 21
-1.902559869059395
 31
0.0
  0
LINE
  5
1D70
330
1F
100
AcDbEntity
  8
0
  6
Continuous
 62
     7
370
    15
100
AcDbLine
 10
0.9585749252670348
 20
-1.877421781700212
 30
0.0
 11
0.9673183578209152
 21
-1.892622434218742
 31
0.0
  0
LINE
  5
1D71
330
1F
100
AcDbEntity
  8
0
  6
Continuous
 62
     7
370
    15
100
AcDbLine
 10
0.9803079174818332
 20
-1.89314338116758
 30
0.0
 11
0.9825695419225118
 21
-1.897075238687668
 31
0.0
  0
LINE
  5
1D72
330
1F
100
AcDbEntity
  8
0
  6
Continuous
 62
     7
370
    15
100
AcDbLine
 10
0.9681100618515528
 20
-1.871937151328494
 30
0.0
 11
0.9768535120534805
 21
-1.8871378104829
 31
0.0
  0
LINE
  5
1D73
330
1F
100
AcDbEntity
  8
0
  6
Continuous
 62
     7
370
    15
100
AcDbLine
 10
0.9729886168001387
 20
-1.886435437715684
 30
0.0
 11
0.9686057937518504
 21
-1.878815804732837
 31
0.0
  0
LINE
  5
1D74
330
1F
100
AcDbEntity
  8
0
  6
Continuous
 62
     7
370
    15
100
AcDbLine
 10
0.9798644429970784
 20
-1.898389185441239
 30
0.0
 11
0.9789718617118806
 21
-1.896837391333484
 31
0.0
  0
ARC
  5
1D75
330
1F
100
AcDbEntity
  8
0
  6
Continuous
 62
     7
370
    15
100
AcDbCircle
 10
0.9703229322142239
 20
-1.886815094894703
 30
0.0
 40
0.0150000000000123
100
AcDbArc
 50
290.3135341632076
 51
309.5016706169285
  0
LINE
  5
1D76
330
1F
100
AcDbEntity
  8
0
  6
Continuous
 62
     7
370
    15
100
AcDbLine
 10
0.9746377100736441
 20
-1.899330407556179
 30
0.0
 11
0.9755302900041394
 21
-1.90088219924654
 31
0.0
  0
LINE
  5
1D77
330
1F
100
AcDbEntity
  8
0
  6
Continuous
 62
     7
370
    15
100
AcDbLine
 10
0.9642716407589109
 20
-1.881308818538136
 30
0.0
 11
0.9686544801046089
 21
-1.888928428152971
 31
0.0
  0
ARC
  5
1D78
330
1F
100
AcDbEntity
  8
0
  6
Continuous
 62
     7
370
    15
100
AcDbCircle
 10
0.9738131515416517
 20
-1.892882909084871
 30
0.0
 40
0.0150000000000123
100
AcDbArc
 50
110.313534163208
 51
129.5016706169343
  0
LINE
  5
1D79
330
1F
100
AcDbEntity
  8
0
  6
Continuous
 62
     7
370
    15
100
AcDbLine
 10
0.9814648584098589
 20
-1.901171538766715
 30
0.0
 11
0.9771307054169196
 21
-1.903664552572016
 31
0.0
  0
ARC
  5
1D7A
330
1F
100
AcDbEntity
  8
0
  6
Continuous
 62
     7
370
    15
100
AcDbCircle
 10
0.9799690501267624
 20
-1.898571046970778
 30
0.0
 40
0.0029999999999725
100
AcDbArc
 50
299.9076023905646
 51
29.90760239058283
  0
ARC
  5
1D7B
330
1F
100
AcDbEntity
  8
0
  6
Continuous
 62
     7
370
    15
100
AcDbCircle
 10
0.9756348971337678
 20
-1.901064060776175
 30
0.0
 40
0.0030000000000113
100
AcDbArc
 50
209.9076023903714
 51
299.9076023903713
  0
ARC
  5
1D7C
330
1F
100
AcDbEntity
  8
0
  6
Continuous
 62
     7
370
    15
100
AcDbCircle
 10
65.29017994289484
 20
35.12849528778925
 30
0.0
 40
74.21585613144192
100
AcDbArc
 50
209.9060161722233
 51
209.9091042359115
  0
LWPOLYLINE
  5
1D7D
330
1F
100
AcDbEntity
  8
0
  6
Continuous
 62
     7
370
    15
100
AcDbPolyline
 90
        8
 70
   128
 43
0.0
 10
0.9661156485964466
 20
-1.86846981184832
 10
0.966125682462537
 20
-1.86848726886543
 10
0.966233432970719
 20
-1.868674607658699
 10
0.9664533384896206
 20
-1.869056901062387
 10
0.9667722737100757
 20
-1.869611387182715
 10
0.967171162505124
 20
-1.870304828859301
 10
0.9676261430197535
 20
-1.871095842190204
 10
0.9681100585861484
 20
-1.871937138316072
  0
ARC
  5
1D7E
330
1F
100
AcDbEntity
  8
0
  6
Continuous
 62
     7
370
    15
100
AcDbCircle
 10
0.9834592694542192
 20
-1.904638861160953
 30
0.0
 40
0.0029999999999725
100
AcDbArc
 50
299.9076023905726
 51
29.90760239058283
  0
LINE
  5
1D7F
330
1F
100
AcDbEntity
  8
0
  6
Continuous
 62
     7
370
    15
100
AcDbLine
 10
0.9825695419225118
 20
-1.897075238687668
 30
0.0
 11
0.986059761249944
 21
-1.903143052877828
 31
0.0
  0
LINE
  5
1D80
330
1F
100
AcDbEntity
  8
0
  6
Continuous
 62
     7
370
    15
100
AcDbLine
 10
0.9833546623245364
 20
-1.904456999631412
 30
0.0
 11
0.9814648584098589
 21
-1.901171538766715
 31
0.0
  0
ARC
  5
1D81
330
1F
100
AcDbEntity
  8
0
  6
Continuous
 62
     7
370
    15
100
AcDbCircle
 10
0.9738131515416517
 20
-1.892882909084871
 30
0.0
 40
0.0150000000000123
100
AcDbArc
 50
290.3135341632072
 51
309.5016706169264
  0
LINE
  5
1D82
330
1F
100
AcDbEntity
  8
0
  6
Continuous
 62
     7
370
    15
100
AcDbLine
 10
0.9771307054169196
 20
-1.903664552572016
 30
0.0
 11
0.9790205093315969
 21
-1.906950013436714
 31
0.0
  0
LINE
  5
1D83
330
1F
100
AcDbEntity
  8
0
  6
Continuous
 62
     7
370
    15
100
AcDbLine
 10
0.9849550777373413
 20
-1.907239352956902
 30
0.0
 11
0.9806209247444619
 21
-1.9097323667621
 31
0.0
  0
LINE
  5
1D84
330
1F
100
AcDbEntity
  8
0
  6
Continuous
 62
     7
370
    15
100
AcDbLine
 10
0.973034405337988
 20
-1.902559869059395
 30
0.0
 11
0.9765246246654213
 21
-1.908627683249554
 31
0.0
  0
ARC
  5
1D85
330
1F
100
AcDbEntity
  8
0
  6
Continuous
 62
     7
370
    15
100
AcDbCircle
 10
0.9791251164612256
 20
-1.907131874966348
 30
0.0
 40
0.0030000000000113
100
AcDbArc
 50
209.9076023903724
 51
299.9076023903713
  0
LINE
  5
1D86
330
1F
100
AcDbEntity
  8
0
  6
Continuous
 62
     7
370
    15
100
AcDbLine
 10
0.9661156508072521
 20
-1.868469828934153
 30
0.0
 11
0.9565805142227297
 21
-1.873954459305878
 31
0.0
  0
LINE
  5
1D87
330
1F
100
AcDbEntity
  8
0
  6
Continuous
 62
     7
370
    15
100
AcDbLine
 10
0.6139317555296376
 20
-1.269550046493242
 30
0.0
 11
0.9613480825149909
 21
-1.871212144120015
 31
0.0
  0
CIRCLE
  5
1D88
330
1F
100
AcDbEntity
  8
0
  6
Continuous
 62
     7
370
    15
100
AcDbCircle
 10
1.41372629853349
 20
-1.130930987577491
 30
0.0
 40
0.0064999999999884
  0
CIRCLE
  5
1D89
330
1F
100
AcDbEntity
  8
0
  6
Continuous
 62
     7
370
    15
100
AcDbCircle
 10
1.41372629853349
 20
-1.130930987577491
 30
0.0
 40
0.000550000000004
  0
CIRCLE
  5
1D8A
330
1F
100
AcDbEntity
  8
0
  6
Continuous
 62
     7
370
    15
100
AcDbCircle
 10
1.41372629853349
 20
-1.130930987577491
 30
0.0
 40
0.0055000000000121
  0
LINE
  5
1D8B
330
1F
100
AcDbEntity
  8
0
  6
Continuous
 62
     7
370
    15
100
AcDbLine
 10
1.417181554980558
 20
-1.136436559266512
 30
0.0
 11
1.421717418601001
 21
-1.136443881560226
 31
0.0
  0
LINE
  5
1D8C
330
1F
100
AcDbEntity
  8
0
  6
Continuous
 62
     7
370
    15
100
AcDbLine
 10
1.392717456309919
 20
-1.136397114947595
 30
0.0
 11
1.410253323822006
 21
-1.136425406498924
 31
0.0
  0
LINE
  5
1D8D
330
1F
100
AcDbEntity
  8
0
  6
Continuous
 62
     7
370
    15
100
AcDbLine
 10
1.417199256944183
 20
-1.125436591323014
 30
0.0
 11
1.42173515766098
 21
-1.125443895863611
 31
0.0
  0
LINE
  5
1D8E
330
1F
100
AcDbEntity
  8
0
  6
Continuous
 62
     7
370
    15
100
AcDbLine
 10
1.392735195369903
 20
-1.125397129250989
 30
0.0
 11
1.410271077452851
 21
-1.125425408836599
 31
0.0
  0
LINE
  5
1D8F
330
1F
100
AcDbEntity
  8
0
  6
Continuous
 62
     7
370
    15
100
AcDbLine
 10
1.407730357166845
 20
-1.128421319925351
 30
0.0
 11
1.398940149912041
 21
-1.128407139534037
 31
0.0
  0
LINE
  5
1D90
330
1F
100
AcDbEntity
  8
0
  6
Continuous
 62
     7
370
    15
100
AcDbLine
 10
1.421520519466076
 20
-1.128443553629572
 30
0.0
 11
1.419730335704718
 21
-1.128440654643618
 31
0.0
  0
ARC
  5
1D91
330
1F
100
AcDbEntity
  8
0
  6
Continuous
 62
     7
370
    15
100
AcDbCircle
 10
1.406726307635647
 20
-1.130919699084739
 30
0.0
 40
0.0150000000000123
100
AcDbArc
 50
350.313534163208
 51
9.501670616927573
  0
LINE
  5
1D92
330
1F
100
AcDbEntity
  8
0
  6
Continuous
 62
     7
370
    15
100
AcDbLine
 10
1.4197222752665
 20
-1.133440648177532
 30
0.0
 11
1.421512456256982
 21
-1.133443547127996
 31
0.0
  0
LINE
  5
1D93
330
1F
100
AcDbEntity
  8
0
  6
Continuous
 62
     7
370
    15
100
AcDbLine
 10
1.398932086702946
 20
-1.13340713303246
 30
0.0
 11
1.407722281869162
 21
-1.133421287625797
 31
0.0
  0
ARC
  5
1D94
330
1F
100
AcDbEntity
  8
0
  6
Continuous
 62
     7
370
    15
100
AcDbCircle
 10
1.41372629853349
 20
-1.130930987577491
 30
0.0
 40
0.0150000000000123
100
AcDbArc
 50
170.313534163208
 51
189.5016706169336
  0
LINE
  5
1D95
330
1F
100
AcDbEntity
  8
0
  6
Continuous
 62
     7
370
    15
100
AcDbLine
 10
1.424730315834632
 20
-1.128448729888234
 30
0.0
 11
1.424722252625538
 21
-1.133448723386658
 31
0.0
  0
ARC
  5
1D96
330
1F
100
AcDbEntity
  8
0
  6
Continuous
 62
     7
370
    15
100
AcDbCircle
 10
1.42173031973547
 20
-1.128443891962618
 30
0.0
 40
0.0029999999999725
100
AcDbArc
 50
359.9076023905698
 51
89.90760239058254
  0
ARC
  5
1D97
330
1F
100
AcDbEntity
  8
0
  6
Continuous
 62
     7
370
    15
100
AcDbCircle
 10
1.421722256526431
 20
-1.133443885461138
 30
0.0
 40
0.0030000000000113
100
AcDbArc
 50
269.9076023903717
 51
359.9076023903717
  0
ARC
  5
1D98
330
1F
100
AcDbEntity
  8
0
  6
Continuous
 62
     7
370
    15
100
AcDbCircle
 10
1.510455692605755
 20
73.07936563128928
 30
0.0
 40
74.21585613144192
100
AcDbArc
 50
269.9060161722234
 51
269.9091042359116
  0
LWPOLYLINE
  5
1D99
330
1F
100
AcDbEntity
  8
0
  6
Continuous
 62
     7
370
    15
100
AcDbPolyline
 90
        8
 70
   128
 43
0.0
 10
1.388735184668974
 20
-1.125390672055468
 10
1.388755319822311
 20
-1.125390710981091
 10
1.388971435230488
 20
-1.12539106570037
 10
1.389412463789232
 20
-1.125391768636413
 10
1.390052130465709
 20
-1.1253928056935
 10
1.390852112971199
 20
-1.125394078701996
 10
1.391764640867808
 20
-1.125395560683552
 10
1.392735182468113
 20
-1.125397125572702
  0
ARC
  5
1D9A
330
1F
100
AcDbEntity
  8
0
  6
Continuous
 62
     7
370
    15
100
AcDbCircle
 10
1.428730310633334
 20
-1.128455180455349
 30
0.0
 40
0.0029999999999725
100
AcDbArc
 50
359.9076023905698
 51
89.90760239058254
  0
LINE
  5
1D9B
330
1F
100
AcDbEntity
  8
0
  6
Continuous
 62
     7
370
    15
100
AcDbLine
 10
1.42173515766098
 20
-1.125443895863611
 30
0.0
 11
1.428735148558819
 21
-1.125455184356356
 31
0.0
  0
LINE
  5
1D9C
330
1F
100
AcDbEntity
  8
0
  6
Continuous
 62
     7
370
    15
100
AcDbLine
 10
1.428520510363939
 20
-1.128454842122301
 30
0.0
 11
1.424730315834632
 21
-1.128448729888234
 31
0.0
  0
ARC
  5
1D9D
330
1F
100
AcDbEntity
  8
0
  6
Continuous
 62
     7
370
    15
100
AcDbCircle
 10
1.41372629853349
 20
-1.130930987577491
 30
0.0
 40
0.0150000000000123
100
AcDbArc
 50
350.3135341632071
 51
9.501670616926594
  0
LINE
  5
1D9E
330
1F
100
AcDbEntity
  8
0
  6
Continuous
 62
     7
370
    15
100
AcDbLine
 10
1.424722252625538
 20
-1.133448723386658
 30
0.0
 11
1.428512447154845
 21
-1.133454835620725
 31
0.0
  0
LINE
  5
1D9F
330
1F
100
AcDbEntity
  8
0
  6
Continuous
 62
     7
370
    15
100
AcDbLine
 10
1.431730306732519
 20
-1.128460018380948
 30
0.0
 11
1.431722243523366
 21
-1.133460011879269
 31
0.0
  0
LINE
  5
1DA0
330
1F
100
AcDbEntity
  8
0
  6
Continuous
 62
     7
370
    15
100
AcDbLine
 10
1.421717418601001
 20
-1.136443881560226
 30
0.0
 11
1.428717409498839
 21
-1.136455170052969
 31
0.0
  0
ARC
  5
1DA1
330
1F
100
AcDbEntity
  8
0
  6
Continuous
 62
     7
370
    15
100
AcDbCircle
 10
1.428722247424294
 20
-1.133455173953867
 30
0.0
 40
0.0030000000000113
100
AcDbArc
 50
269.9076023903674
 51
359.9076023903674
  0
LINE
  5
1DA2
330
1F
100
AcDbEntity
  8
0
  6
Continuous
 62
     7
370
    15
100
AcDbLine
 10
1.388735200571142
 20
-1.125390678683771
 30
0.0
 11
1.388717461511163
 21
-1.136390664380384
 31
0.0
  0
LINE
  5
1DA3
330
1F
100
AcDbEntity
  8
0
  6
Continuous
 62
     7
370
    15
100
AcDbLine
 10
0.6939635065094578
 20
-1.130930987577489
 30
0.0
 11
1.388726331041153
 21
-1.130890671532078
 31
0.0
  0
CIRCLE
  5
1DA4
330
1F
100
AcDbEntity
  8
0
  6
Continuous
 62
     7
370
    15
100
AcDbCircle
 10
0.9738131515416517
 20
-0.3689790660701115
 30
0.0
 40
0.0064999999999884
  0
CIRCLE
  5
1DA5
330
1F
100
AcDbEntity
  8
0
  6
Continuous
 62
     7
370
    15
100
AcDbCircle
 10
0.9738131515416517
 20
-0.3689790660701115
 30
0.0
 40
0.000550000000004
  0
CIRCLE
  5
1DA6
330
1F
100
AcDbEntity
  8
0
  6
Continuous
 62
     7
370
    15
100
AcDbCircle
 10
0.9738131515416517
 20
-0.3689790660701115
 30
0.0
 40
0.0055000000000121
  0
LINE
  5
1DA7
330
1F
100
AcDbEntity
  8
0
  6
Continuous
 62
     7
370
    15
100
AcDbLine
 10
0.9803087447102337
 20
-0.3687395120548711
 30
0.0
 11
0.9825830178128259
 21
-0.3648150000783232
 31
0.0
  0
LINE
  5
1DA8
330
1F
100
AcDbEntity
  8
0
  6
Continuous
 62
     7
370
    15
100
AcDbLine
 10
0.9680425355926977
 20
-0.389906320824875
 30
0.0
 11
0.9768349705509043
 21
-0.374733959857674
 31
0.0
  0
LINE
  5
1DA9
330
1F
100
AcDbEntity
  8
0
  6
Continuous
 62
     7
370
    15
100
AcDbLine
 10
0.9707913440121632
 20
-0.3632241977329261
 30
0.0
 11
0.973065620288281
 21
-0.3592996447534348
 31
0.0
  0
LINE
  5
1DAA
330
1F
100
AcDbEntity
  8
0
  6
Continuous
 62
     7
370
    15
100
AcDbLine
 10
0.9585251380681636
 20
-0.384390965499987
 30
0.0
 11
0.9673175699491837
 21
-0.3692185859311904
 31
0.0
  0
LINE
  5
1DAB
330
1F
100
AcDbEntity
  8
0
  6
Continuous
 62
     7
370
    15
100
AcDbLine
 10
0.9686417449165192
 20
-0.3729168697871583
 30
0.0
 11
0.964234360710004
 21
-0.3805223223786915
 31
0.0
  0
LINE
  5
1DAC
330
1F
100
AcDbEntity
  8
0
  6
Continuous
 62
     7
370
    15
100
AcDbLine
 10
0.9755560810188106
 20
-0.3609853557658242
 30
0.0
 11
0.9746584785426506
 21
-0.3625342508876257
 31
0.0
  0
ARC
  5
1DAD
330
1F
100
AcDbEntity
  8
0
  6
Continuous
 62
     7
370
    15
100
AcDbCircle
 10
0.9703033799712361
 20
-0.3750355917675278
 30
0.0
 40
0.0150000000000123
100
AcDbArc
 50
50.3135341632077
 51
69.50167061692729
  0
LINE
  5
1DAE
330
1F
100
AcDbEntity
  8
0
  6
Continuous
 62
     7
370
    15
100
AcDbLine
 10
0.978984569742669
 20
-0.3650412281988453
 30
0.0
 11
0.979882170802656
 21
-0.3634923354589474
 31
0.0
  0
LINE
  5
1DAF
330
1F
100
AcDbEntity
  8
0
  6
Continuous
 62
     7
370
    15
100
AcDbLine
 10
0.9685604504938482
 20
-0.3830293020718156
 30
0.0
 11
0.972967806314366
 21
-0.3754238470503183
 31
0.0
  0
ARC
  5
1DB0
330
1F
100
AcDbEntity
  8
0
  6
Continuous
 62
     7
370
    15
100
AcDbCircle
 10
0.9738131515416517
 20
-0.3689790660701115
 30
0.0
 40
0.0150000000000123
100
AcDbArc
 50
230.3135341632079
 51
249.5016706169332
  0
LINE
  5
1DB1
330
1F
100
AcDbEntity
  8
0
  6
Continuous
 62
     7
370
    15
100
AcDbLine
 10
0.9771654619745862
 20
-0.3582081786990106
 30
0.0
 11
0.9814915517584318
 21
-0.3607151583921338
 31
0.0
  0
ARC
  5
1DB2
330
1F
100
AcDbEntity
  8
0
  6
Continuous
 62
     7
370
    15
100
AcDbCircle
 10
0.9756612741585209
 20
-0.3608038325693315
 30
0.0
 40
0.0029999999999725
100
AcDbArc
 50
59.9076023905709
 51
149.9076023905833
  0
ARC
  5
1DB3
330
1F
100
AcDbEntity
  8
0
  6
Continuous
 62
     7
370
    15
100
AcDbCircle
 10
0.9799873639424764
 20
-0.3633108122624549
 30
0.0
 40
0.0030000000000113
100
AcDbArc
 50
329.9076023903658
 51
59.90760239037051
  0
ARC
  5
1DB4
330
1F
100
AcDbEntity
  8
0
  6
Continuous
 62
     7
370
    15
100
AcDbCircle
 10
-63.24582424573924
 20
36.81993935592256
 30
0.0
 40
74.21585613144192
100
AcDbArc
 50
329.9060161722233
 51
329.9091042359116
  0
LWPOLYLINE
  5
1DB5
330
1F
100
AcDbEntity
  8
0
  6
Continuous
 62
     7
370
    15
100
AcDbPolyline
 90
        8
 70
   128
 43
0.0
 10
0.9565195406223409
 20
-0.3878518477846404
 10
0.9565296419095873
 20
-0.3878344296931531
 10
0.9566380068095819
 20
-0.3876474456191621
 10
0.9568591298494245
 20
-0.3872658551515167
 10
0.9571798613054461
 20
-0.3867124060882774
 10
0.9575809550158882
 20
-0.3860202374201875
 10
0.9580385023978679
 20
-0.38523070607084
 10
0.9585251284317776
 20
-0.3843909748341212
  0
ARC
  5
1DB6
330
1F
100
AcDbEntity
  8
0
  6
Continuous
 62
     7
370
    15
100
AcDbCircle
 10
0.9791710457289273
 20
-0.3547473068718869
 30
0.0
 40
0.0029999999999725
100
AcDbArc
 50
59.90760239056906
 51
149.9076023905833
  0
LINE
  5
1DB7
330
1F
100
AcDbEntity
  8
0
  6
Continuous
 62
     7
370
    15
100
AcDbLine
 10
0.973065620288281
 20
-0.3592996447534348
 30
0.0
 11
0.9765753918586877
 21
-0.3532431190560188
 31
0.0
  0
LINE
  5
1DB8
330
1F
100
AcDbEntity
  8
0
  6
Continuous
 62
     7
370
    15
100
AcDbLine
 10
0.9790658525892155
 20
-0.3549288300683797
 30
0.0
 11
0.9771654619745862
 21
-0.3582081786990106
 31
0.0
  0
ARC
  5
1DB9
330
1F
100
AcDbEntity
  8
0
  6
Continuous
 62
     7
370
    15
100
AcDbCircle
 10
0.9738131515416517
 20
-0.3689790660701115
 30
0.0
 40
0.0150000000000123
100
AcDbArc
 50
50.31353416320678
 51
69.50167061692686
  0
LINE
  5
1DBA
330
1F
100
AcDbEntity
  8
0
  6
Continuous
 62
     7
370
    15
100
AcDbLine
 10
0.9814915517584318
 20
-0.3607151583921338
 30
0.0
 11
0.9833919423730613
 21
-0.3574358097615031
 31
0.0
  0
LINE
  5
1DBB
330
1F
100
AcDbEntity
  8
0
  6
Continuous
 62
     7
370
    15
100
AcDbLine
 10
0.9806752335449911
 20
-0.3521516530015376
 30
0.0
 11
0.9850013233287176
 21
-0.3546586326946606
 31
0.0
  0
LINE
  5
1DBC
330
1F
100
AcDbEntity
  8
0
  6
Continuous
 62
     7
370
    15
100
AcDbLine
 10
0.9825830178128259
 20
-0.3648150000783232
 30
0.0
 11
0.9860927893832309
 21
-0.3587584743809071
 31
0.0
  0
ARC
  5
1DBD
330
1F
100
AcDbEntity
  8
0
  6
Continuous
 62
     7
370
    15
100
AcDbCircle
 10
0.9834971355128812
 20
-0.3572542865650103
 30
0.0
 40
0.0030000000000113
100
AcDbArc
 50
329.9076023903705
 51
59.90760239036394
  0
LINE
  5
1DBE
330
1F
100
AcDbEntity
  8
0
  6
Continuous
 62
     7
370
    15
100
AcDbLine
 10
0.9565195543137033
 20
-0.3878518373271103
 30
0.0
 11
0.9660369518382462
 21
-0.3933671926519986
 31
0.0
  0
LINE
  5
1DBF
330
1F
100
AcDbEntity
  8
0
  6
Continuous
 62
     7
370
    15
100
AcDbLine
 10
0.6139317555296331
 20
-0.9923119286617379
 30
0.0
 11
0.9612782530759749
 21
-0.3906095149895545
 31
0.0
  0
CIRCLE
  5
1DC0
330
1F
100
AcDbEntity
  8
0
  6
Continuous
 62
     7
370
    15
100
AcDbCircle
 10
0.0939868575579752
 20
-0.3689790660701111
 30
0.0
 40
0.0064999999999884
  0
CIRCLE
  5
1DC1
330
1F
100
AcDbEntity
  8
0
  6
Continuous
 62
     7
370
    15
100
AcDbCircle
 10
0.0939868575579752
 20
-0.3689790660701111
 30
0.0
 40
0.000550000000004
  0
CIRCLE
  5
1DC2
330
1F
100
AcDbEntity
  8
0
  6
Continuous
 62
     7
370
    15
100
AcDbCircle
 10
0.0939868575579752
 20
-0.3689790660701111
 30
0.0
 40
0.0055000000000121
  0
LINE
  5
1DC3
330
1F
100
AcDbEntity
  8
0
  6
Continuous
 62
     7
370
    15
100
AcDbLine
 10
0.0970271942794894
 20
-0.3632339403658502
 30
0.0
 11
0.0947656037616389
 21
-0.3593021060955877
 31
0.0
  0
LINE
  5
1DC4
330
1F
100
AcDbEntity
  8
0
  6
Continuous
 62
     7
370
    15
100
AcDbLine
 10
0.1092250838325919
 20
-0.3844401934547705
 30
0.0
 11
0.1004816512787117
 21
-0.3692395409362408
 31
0.0
  0
LINE
  5
1DC5
330
1F
100
AcDbEntity
  8
0
  6
Continuous
 62
     7
370
    15
100
AcDbLine
 10
0.0874920916177937
 20
-0.3687185939874025
 30
0.0
 11
0.0852304671771151
 21
-0.3647867364673143
 31
0.0
  0
LINE
  5
1DC6
330
1F
100
AcDbEntity
  8
0
  6
Continuous
 62
     7
370
    15
100
AcDbLine
 10
0.0996899472480741
 20
-0.3899248238264882
 30
0.0
 11
0.0909464970461462
 21
-0.3747241646720822
 31
0.0
  0
LINE
  5
1DC7
330
1F
100
AcDbEntity
  8
0
  6
Continuous
 62
     7
370
    15
100
AcDbLine
 10
0.0948113922994882
 20
-0.3754265374392982
 30
0.0
 11
0.0991942153477765
 21
-0.3830461704221453
 31
0.0
  0
LINE
  5
1DC8
330
1F
100
AcDbEntity
  8
0
  6
Continuous
 62
     7
370
    15
100
AcDbLine
 10
0.0879355661025485
 20
-0.3634727897137431
 30
0.0
 11
0.0888281473877464
 21
-0.365024583821498
 31
0.0
  0
ARC
  5
1DC9
330
1F
100
AcDbEntity
  8
0
  6
Continuous
 62
     7
370
    15
100
AcDbCircle
 10
0.097477076885403
 20
-0.3750468802602794
 30
0.0
 40
0.0150000000000123
100
AcDbArc
 50
110.3135341632082
 51
129.5016706169273
  0
LINE
  5
1DCA
330
1F
100
AcDbEntity
  8
0
  6
Continuous
 62
     7
370
    15
100
AcDbLine
 10
0.0931622990259826
 20
-0.3625315675988037
 30
0.0
 11
0.0922697190954873
 21
-0.3609797759084421
 31
0.0
  0
LINE
  5
1DCB
330
1F
100
AcDbEntity
  8
0
  6
Continuous
 62
     7
370
    15
100
AcDbLine
 10
0.1035283683407158
 20
-0.3805531566168461
 30
0.0
 11
0.0991455289950181
 21
-0.3729335470020118
 31
0.0
  0
ARC
  5
1DCC
330
1F
100
AcDbEntity
  8
0
  6
Continuous
 62
     7
370
    15
100
AcDbCircle
 10
0.0939868575579752
 20
-0.3689790660701111
 30
0.0
 40
0.0150000000000123
100
AcDbArc
 50
290.313534163208
 51
309.5016706169333
  0
LINE
  5
1DCD
330
1F
100
AcDbEntity
  8
0
  6
Continuous
 62
     7
370
    15
100
AcDbLine
 10
0.086335150689768
 20
-0.3606904363882677
 30
0.0
 11
0.0906693036827071
 21
-0.3581974225829667
 31
0.0
  0
ARC
  5
1DCE
330
1F
100
AcDbEntity
  8
0
  6
Continuous
 62
     7
370
    15
100
AcDbCircle
 10
0.0878309589728645
 20
-0.3632909281842038
 30
0.0
 40
0.0029999999999725
100
AcDbArc
 50
119.9076023905689
 51
209.9076023905808
  0
ARC
  5
1DCF
330
1F
100
AcDbEntity
  8
0
  6
Continuous
 62
     7
370
    15
100
AcDbCircle
 10
0.0921651119658589
 20
-0.3607979143788076
 30
0.0
 40
0.0030000000000113
100
AcDbArc
 50
29.90760239036494
 51
119.9076023903682
  0
ARC
  5
1DD0
330
1F
100
AcDbEntity
  8
0
  6
Continuous
 62
     7
370
    15
100
AcDbCircle
 10
-64.22237993379524
 20
-37.39035726294419
 30
0.0
 40
74.21585613144192
100
AcDbArc
 50
29.90601617222331
 51
29.90910423591149
  0
LWPOLYLINE
  5
1DD1
330
1F
100
AcDbEntity
  8
0
  6
Continuous
 62
     7
370
    15
100
AcDbPolyline
 90
        8
 70
   128
 43
0.0
 10
0.1016843605031801
 20
-0.3933921633066626
 10
0.1016743266370899
 20
-0.3933747062895525
 10
0.101566576128908
 20
-0.3931873674962831
 10
0.1013466706100064
 20
-0.3928050740925948
 10
0.1010277353895512
 20
-0.3922505879722678
 10
0.1006288465945027
 20
-0.3915571462956817
 10
0.1001738660798732
 20
-0.3907661329647785
 10
0.0996899505134785
 20
-0.3899248368389103
  0
ARC
  5
1DD2
330
1F
100
AcDbEntity
  8
0
  6
Continuous
 62
     7
370
    15
100
AcDbCircle
 10
0.0843407396454077
 20
-0.357223113994029
 30
0.0
 40
0.0029999999999725
100
AcDbArc
 50
119.9076023905727
 51
209.9076023905832
  0
LINE
  5
1DD3
330
1F
100
AcDbEntity
  8
0
  6
Continuous
 62
     7
370
    15
100
AcDbLine
 10
0.0852304671771151
 20
-0.3647867364673143
 30
0.0
 11
0.0817402478496829
 21
-0.3587189222771539
 31
0.0
  0
LINE
  5
1DD4
330
1F
100
AcDbEntity
  8
0
  6
Continuous
 62
     7
370
    15
100
AcDbLine
 10
0.0844453467750905
 20
-0.3574049755235698
 30
0.0
 11
0.086335150689768
 21
-0.3606904363882677
 31
0.0
  0
ARC
  5
1DD5
330
1F
100
AcDbEntity
  8
0
  6
Continuous
 62
     7
370
    15
100
AcDbCircle
 10
0.0939868575579752
 20
-0.3689790660701111
 30
0.0
 40
0.0150000000000123
100
AcDbArc
 50
110.3135341632072
 51
129.5016706169265
  0
LINE
  5
1DD6
330
1F
100
AcDbEntity
  8
0
  6
Continuous
 62
     7
370
    15
100
AcDbLine
 10
0.0906693036827071
 20
-0.3581974225829667
 30
0.0
 11
0.08877949976803
 21
-0.3549119617182688
 31
0.0
  0
LINE
  5
1DD7
330
1F
100
AcDbEntity
  8
0
  6
Continuous
 62
     7
370
    15
100
AcDbLine
 10
0.0828449313622857
 20
-0.3546226221980802
 30
0.0
 11
0.087179084355165
 21
-0.3521296083928822
 31
0.0
  0
LINE
  5
1DD8
330
1F
100
AcDbEntity
  8
0
  6
Continuous
 62
     7
370
    15
100
AcDbLine
 10
0.0947656037616389
 20
-0.3593021060955877
 30
0.0
 11
0.0912753844342054
 21
-0.3532342919054284
 31
0.0
  0
ARC
  5
1DD9
330
1F
100
AcDbEntity
  8
0
  6
Continuous
 62
     7
370
    15
100
AcDbCircle
 10
0.0886748926384013
 20
-0.3547301001886343
 30
0.0
 40
0.0030000000000113
100
AcDbArc
 50
29.9076023903719
 51
119.90760239037
  0
LINE
  5
1DDA
330
1F
100
AcDbEntity
  8
0
  6
Continuous
 62
     7
370
    15
100
AcDbLine
 10
0.1016843582923748
 20
-0.39339214622083
 30
0.0
 11
0.111219494876897
 21
-0.3879075158491048
 31
0.0
  0
LINE
  5
1DDB
330
1F
100
AcDbEntity
  8
0
  6
Continuous
 62
     7
370
    15
100
AcDbLine
 10
0.4538682535699889
 20
-0.9923119286617401
 30
0.0
 11
0.106451926584636
 21
-0.3906498310349673
 31
0.0
  0
LINE
  5
1EE2
330
1F
100
AcDbEntity
  8
0
  6
Continuous
 62
     7
370
    15
100
AcDbLine
 10
0.6613509386465992
 20
0.7677535681231155
 30
0.0
 11
0.6606009387050449
 21
0.7685035677803852
 31
0.0
  0
LINE
  5
1EE3
330
1F
100
AcDbEntity
  8
0
  6
Continuous
 62
     7
370
    15
100
AcDbLine
 10
0.6581009328523644
 20
0.7685035677803852
 30
0.0
 11
0.6573509419820667
 21
0.7677535681231155
 31
0.0
  0
LINE
  5
1EE4
330
1F
100
AcDbEntity
  8
0
  6
Continuous
 62
     7
370
    15
100
AcDbLine
 10
0.6613509386465992
 20
0.7677035691393764
 30
0.0
 11
0.6613509386465992
 21
0.7677535681231155
 31
0.0
  0
LINE
  5
1EE5
330
1F
100
AcDbEntity
  8
0
  6
Continuous
 62
     7
370
    15
100
AcDbLine
 10
0.6573509419820667
 20
0.7677535681231155
 30
0.0
 11
0.6573509419820667
 21
0.7677035691393764
 31
0.0
  0
LINE
  5
1EE6
330
1F
100
AcDbEntity
  8
0
  6
Continuous
 62
     7
370
    15
100
AcDbLine
 10
0.5379423128464254
 20
0.7677535681231155
 30
0.0
 11
0.5371923158603451
 21
0.7685035677803852
 31
0.0
  0
LINE
  5
1EE7
330
1F
100
AcDbEntity
  8
0
  6
Continuous
 62
     7
370
    15
100
AcDbLine
 10
0.5346923190789212
 20
0.7685035677803852
 30
0.0
 11
0.5339423161818999
 21
0.7677535681231155
 31
0.0
  0
LINE
  5
1EE8
330
1F
100
AcDbEntity
  8
0
  6
Continuous
 62
     7
370
    15
100
AcDbLine
 10
0.5379423128464254
 20
0.7677035691393764
 30
0.0
 11
0.5379423128464254
 21
0.7677535681231155
 31
0.0
  0
LINE
  5
1EE9
330
1F
100
AcDbEntity
  8
0
  6
Continuous
 62
     7
370
    15
100
AcDbLine
 10
0.5339423161818999
 20
0.7677535681231155
 30
0.0
 11
0.5339423161818999
 21
0.7677035691393764
 31
0.0
  0
LINE
  5
1EEA
330
1F
100
AcDbEntity
  8
0
  6
Continuous
 62
     7
370
    15
100
AcDbLine
 10
0.4145336972251457
 20
0.7677535681231155
 30
0.0
 11
0.4137836943281242
 21
0.7685035677803852
 31
0.0
  0
LINE
  5
1EEB
330
1F
100
AcDbEntity
  8
0
  6
Continuous
 62
     7
370
    15
100
AcDbLine
 10
0.4112837023237361
 20
0.7685035677803852
 30
0.0
 11
0.4105336994267077
 21
0.7677535681231155
 31
0.0
  0
LINE
  5
1EEC
330
1F
100
AcDbEntity
  8
0
  6
Continuous
 62
     7
370
    15
100
AcDbLine
 10
0.4145336972251457
 20
0.7677035691393764
 30
0.0
 11
0.4145336972251457
 21
0.7677535681231155
 31
0.0
  0
LINE
  5
1EED
330
1F
100
AcDbEntity
  8
0
  6
Continuous
 62
     7
370
    15
100
AcDbLine
 10
0.4105336994267077
 20
0.7677535681231155
 30
0.0
 11
0.4105336994267077
 21
0.7677035691393764
 31
0.0
  0
LINE
  5
1EFA
330
1F
100
AcDbEntity
  8
0
  6
Continuous
 62
     7
370
    15
100
AcDbLine
 10
0.5399423111786916
 20
0.7405035685459359
 30
0.0
 11
0.5399423111786916
 21
0.7505035685552562
 31
0.0
  0
LINE
  5
1EFB
330
1F
100
AcDbEntity
  8
0
  6
Continuous
 62
     7
370
    15
100
AcDbLine
 10
0.5319423178496336
 20
0.7505035685552562
 30
0.0
 11
0.5319423178496336
 21
0.7405035685459359
 31
0.0
  0
LINE
  5
1EFC
330
1F
100
AcDbEntity
  8
0
  6
Continuous
 62
     7
370
    15
100
AcDbLine
 10
0.5399423111786916
 20
0.7525035688830765
 30
0.0
 11
0.5399423111786916
 21
0.7625035686595555
 31
0.0
  0
LINE
  5
1EFD
330
1F
100
AcDbEntity
  8
0
  6
Continuous
 62
     7
370
    15
100
AcDbLine
 10
0.5319423178496336
 20
0.7625035686595555
 30
0.0
 11
0.5319423178496336
 21
0.7525035688830765
 31
0.0
  0
LINE
  5
1EFE
330
1F
100
AcDbEntity
  8
0
  6
Continuous
 62
     7
370
    15
100
AcDbLine
 10
0.6633509353987037
 20
0.7525035688830765
 30
0.0
 11
0.6633509353987037
 21
0.7625035686595555
 31
0.0
  0
LINE
  5
1EFF
330
1F
100
AcDbEntity
  8
0
  6
Continuous
 62
     7
370
    15
100
AcDbLine
 10
0.6553509361587047
 20
0.7625035686595555
 30
0.0
 11
0.6553509361587047
 21
0.7525035688830765
 31
0.0
  0
LINE
  5
1F00
330
1F
100
AcDbEntity
  8
0
  6
Continuous
 62
     7
370
    15
100
AcDbLine
 10
0.4165336966913172
 20
0.7405035685459359
 30
0.0
 11
0.4165336966913172
 21
0.7505035685552562
 31
0.0
  0
LINE
  5
1F01
330
1F
100
AcDbEntity
  8
0
  6
Continuous
 62
     7
370
    15
100
AcDbLine
 10
0.4085336999605351
 20
0.7505035685552562
 30
0.0
 11
0.4085336999605351
 21
0.7405035685459359
 31
0.0
  0
LINE
  5
1F02
330
1F
100
AcDbEntity
  8
0
  6
Continuous
 62
     7
370
    15
100
AcDbLine
 10
0.6633509353987037
 20
0.7405035685459359
 30
0.0
 11
0.6633509353987037
 21
0.7505035685552562
 31
0.0
  0
LINE
  5
1F03
330
1F
100
AcDbEntity
  8
0
  6
Continuous
 62
     7
370
    15
100
AcDbLine
 10
0.6553509361587047
 20
0.7505035685552562
 30
0.0
 11
0.6553509361587047
 21
0.7405035685459359
 31
0.0
  0
LINE
  5
1F04
330
1F
100
AcDbEntity
  8
0
  6
Continuous
 62
     7
370
    15
100
AcDbLine
 10
0.4165336966913172
 20
0.7525035688830765
 30
0.0
 11
0.4165336966913172
 21
0.7625035686595555
 31
0.0
  0
LINE
  5
1F05
330
1F
100
AcDbEntity
  8
0
  6
Continuous
 62
     7
370
    15
100
AcDbLine
 10
0.4085336999605351
 20
0.7625035686595555
 30
0.0
 11
0.4085336999605351
 21
0.7525035688830765
 31
0.0
  0
LINE
  5
1F0C
330
1F
100
AcDbEntity
  8
0
  6
Continuous
 62
     7
370
    15
100
AcDbLine
 10
0.6959423136390228
 20
0.7505035685552562
 30
0.0
 11
0.6959423136390228
 21
0.7525035688830765
 31
0.0
  0
LINE
  5
1F0D
330
1F
100
AcDbEntity
  8
0
  6
Continuous
 62
     7
370
    15
100
AcDbLine
 10
0.3759423120261554
 20
0.7525035688830765
 30
0.0
 11
0.3759423120261554
 21
0.7505035685552562
 31
0.0
  0
LINE
  5
1F0E
330
1F
100
AcDbEntity
  8
0
  6
Continuous
 62
     7
370
    15
100
AcDbLine
 10
0.6959423136390228
 20
0.7625035686595555
 30
0.0
 11
0.6959423136390228
 21
0.7645035689873863
 31
0.0
  0
LINE
  5
1F0F
330
1F
100
AcDbEntity
  8
0
  6
Continuous
 62
     7
370
    15
100
AcDbLine
 10
0.3759423120261554
 20
0.7645035689873863
 30
0.0
 11
0.3759423120261554
 21
0.7625035686595555
 31
0.0
  0
SPLINE
  5
1F10
330
1F
100
AcDbEntity
  8
0
  6
Continuous
 62
     7
370
    15
100
AcDbSpline
210
0.0
220
0.0
230
1.0
 70
     8
 71
     3
 72
     9
 73
     5
 74
     0
 42
0.0000000001
 43
0.0000000001
 40
0.0
 40
0.0
 40
0.0
 40
0.0
 40
0.722428784349588
 40
1.0
 40
1.0
 40
1.0
 40
1.0
 10
0.4120061752928379
 20
0.7672035681260957
 30
0.0
 10
0.4123251356738605
 20
0.7673618723929961
 30
0.0
 10
0.4127666468482829
 20
0.7675810002438349
 30
0.0
 10
0.4132420103198129
 20
0.767676939236546
 30
0.0
 10
0.4133739575364784
 20
0.7677035691393764
 30
0.0
  0
LINE
  5
1F11
330
1F
100
AcDbEntity
  8
0
  6
Continuous
 62
     7
370
    15
100
AcDbLine
 10
0.4143722249283844
 20
0.7677035691393764
 30
0.0
 11
0.4133739575364784
 21
0.7677035691393764
 31
0.0
  0
SPLINE
  5
1F12
330
1F
100
AcDbEntity
  8
0
  6
Continuous
 62
     7
370
    15
100
AcDbSpline
210
0.0
220
0.0
230
1.0
 70
     8
 71
     3
 72
     9
 73
     5
 74
     0
 42
0.0000000001
 43
0.0000000001
 40
0.0
 40
0.0
 40
0.0
 40
0.0
 40
0.619499034677589
 40
1.0
 40
1.0
 40
1.0
 40
1.0
 10
0.4143722249283844
 20
0.7677035691393764
 30
0.0
 10
0.4146651909657981
 20
0.7676321305519148
 30
0.0
 10
0.4151380989463078
 20
0.7675168138468552
 30
0.0
 10
0.4155740966638318
 20
0.7672899065656348
 30
0.0
 10
0.4157399942162304
 20
0.7672035681260957
 30
0.0
  0
LINE
  5
1F13
330
1F
100
AcDbEntity
  8
0
  6
Continuous
 62
     7
370
    15
100
AcDbLine
 10
0.4157399942162304
 20
0.7672035681260957
 30
0.0
 11
0.4157399942162304
 21
0.7650035681380148
 31
0.0
  0
SPLINE
  5
1F14
330
1F
100
AcDbEntity
  8
0
  6
Continuous
 62
     7
370
    15
100
AcDbSpline
210
0.0
220
0.0
230
1.0
 70
     8
 71
     3
 72
     9
 73
     5
 74
     0
 42
0.0000000001
 43
0.0000000001
 40
0.0
 40
0.0
 40
0.0
 40
0.0
 40
0.7224274645631182
 40
1.0
 40
1.0
 40
1.0
 40
1.0
 10
0.4157399942162304
 20
0.7650035681380148
 30
0.0
 10
0.4154210388919424
 20
0.7648452631422148
 30
0.0
 10
0.4149795339105609
 20
0.7646261338820962
 30
0.0
 10
0.4145041722654668
 20
0.7645301981200862
 30
0.0
 10
0.4143722249283844
 20
0.7645035689873863
 30
0.0
  0
SPLINE
  5
1F15
330
1F
100
AcDbEntity
  8
0
  6
Continuous
 62
     7
370
    15
100
AcDbSpline
210
0.0
220
0.0
230
1.0
 70
     8
 71
     3
 72
     9
 73
     5
 74
     0
 42
0.0000000001
 43
0.0000000001
 40
0.0
 40
0.0
 40
0.0
 40
0.0
 40
0.6195010372640956
 40
1.0
 40
1.0
 40
1.0
 40
1.0
 10
0.4133739575364784
 20
0.7645035689873863
 30
0.0
 10
0.4130809865459284
 20
0.7645750063686662
 30
0.0
 10
0.4126080720987622
 20
0.7646903207539156
 30
0.0
 10
0.4121720726361247
 20
0.7649172295691765
 30
0.0
 10
0.4120061752928379
 20
0.7650035681380148
 30
0.0
  0
LINE
  5
1F16
330
1F
100
AcDbEntity
  8
0
  6
Continuous
 62
     7
370
    15
100
AcDbLine
 10
0.4120061752928379
 20
0.7672035681260957
 30
0.0
 11
0.4120061752928379
 21
0.7650035681380148
 31
0.0
  0
SPLINE
  5
1F17
330
1F
100
AcDbEntity
  8
0
  6
Continuous
 62
     7
370
    15
100
AcDbSpline
210
0.0
220
0.0
230
1.0
 70
     8
 71
     3
 72
     9
 73
     5
 74
     0
 42
0.0000000001
 43
0.0000000001
 40
0.0
 40
0.0
 40
0.0
 40
0.0
 40
0.722423712857018
 40
1.0
 40
1.0
 40
1.0
 40
1.0
 10
0.4120061752928379
 20
0.7650035681380148
 30
0.0
 10
0.4117322834796076
 20
0.764845262729496
 30
0.0
 10
0.4113531544333782
 20
0.7646261317600959
 30
0.0
 10
0.4109449540273502
 20
0.7645301979407665
 30
0.0
 10
0.4108316472742358
 20
0.7645035689873863
 30
0.0
  0
SPLINE
  5
1F18
330
1F
100
AcDbEntity
  8
0
  6
Continuous
 62
     7
370
    15
100
AcDbSpline
210
0.0
220
0.0
230
1.0
 70
     8
 71
     3
 72
     9
 73
     5
 74
     0
 42
0.0000000001
 43
0.0000000001
 40
0.0
 40
0.0
 40
0.0
 40
0.0
 40
0.619502726416432
 40
1.0
 40
1.0
 40
1.0
 40
1.0
 10
0.4108316472742358
 20
0.7677035691393764
 30
0.0
 10
0.4110832253576007
 20
0.7676321312763754
 30
0.0
 10
0.411489322171442
 20
0.767516816427955
 30
0.0
 10
0.4118637185076679
 20
0.7672899066702551
 30
0.0
 10
0.4120061752928379
 20
0.7672035681260957
 30
0.0
  0
LINE
  5
1F19
330
1F
100
AcDbEntity
  8
0
  6
Continuous
 62
     7
370
    15
100
AcDbLine
 10
0.4108316472742358
 20
0.7677035691393764
 30
0.0
 11
0.4133739575364784
 21
0.7677035691393764
 31
0.0
  0
SPLINE
  5
1F1A
330
1F
100
AcDbEntity
  8
0
  6
Continuous
 62
     7
370
    15
100
AcDbSpline
210
0.0
220
0.0
230
1.0
 70
     8
 71
     3
 72
     9
 73
     5
 74
     0
 42
0.0000000001
 43
0.0000000001
 40
0.0
 40
0.0
 40
0.0
 40
0.0
 40
0.7224259963541083
 40
1.0
 40
1.0
 40
1.0
 40
1.0
 10
0.4087998788355796
 20
0.7672035681260957
 30
0.0
 10
0.4090737747918638
 20
0.7673618726997161
 30
0.0
 10
0.4094529083746252
 20
0.7675810018207957
 30
0.0
 10
0.409861111969847
 20
0.7676769393697959
 30
0.0
 10
0.4099744186760717
 20
0.7677035691393764
 30
0.0
  0
LINE
  5
1F1B
330
1F
100
AcDbEntity
  8
0
  6
Continuous
 62
     7
370
    15
100
AcDbLine
 10
0.4108316472742358
 20
0.7677035691393764
 30
0.0
 11
0.4099744186760717
 21
0.7677035691393764
 31
0.0
  0
SPLINE
  5
1F1C
330
1F
100
AcDbEntity
  8
0
  6
Continuous
 62
     7
370
    15
100
AcDbSpline
210
0.0
220
0.0
230
1.0
 70
     8
 71
     3
 72
     9
 73
     5
 74
     0
 42
0.0000000001
 43
0.0000000001
 40
0.0
 40
0.0
 40
0.0
 40
0.0
 40
0.6194972259676698
 40
1.0
 40
1.0
 40
1.0
 40
1.0
 10
0.4099744186760717
 20
0.7645035689873863
 30
0.0
 10
0.4097228409215665
 20
0.7645750071165852
 30
0.0
 10
0.4093167410328816
 20
0.7646903234185859
 30
0.0
 10
0.4089423396140504
 20
0.7649172296771755
 30
0.0
 10
0.4087998788355796
 20
0.7650035681380148
 30
0.0
  0
LINE
  5
1F1D
330
1F
100
AcDbEntity
  8
0
  6
Continuous
 62
     7
370
    15
100
AcDbLine
 10
0.4087998788355796
 20
0.7672035681260957
 30
0.0
 11
0.4087998788355796
 21
0.7650035681380148
 31
0.0
  0
SPLINE
  5
1F1E
330
1F
100
AcDbEntity
  8
0
  6
Continuous
 62
     7
370
    15
100
AcDbSpline
210
0.0
220
0.0
230
1.0
 70
     8
 71
     3
 72
     9
 73
     5
 74
     0
 42
0.0000000001
 43
0.0000000001
 40
0.0
 40
0.0
 40
0.0
 40
0.0
 40
0.2756368004654677
 40
1.0
 40
1.0
 40
1.0
 40
1.0
 10
0.4159332366193809
 20
0.7645035689873863
 30
0.0
 10
0.4159147235216674
 20
0.7645299810559559
 30
0.0
 10
0.4158475586957593
 20
0.7646258030525955
 30
0.0
 10
0.4157851794478374
 20
0.7648448781787262
 30
0.0
 10
0.4157399942162304
 20
0.7650035681380148
 30
0.0
  0
SPLINE
  5
1F1F
330
1F
100
AcDbEntity
  8
0
  6
Continuous
 62
     7
370
    15
100
AcDbSpline
210
0.0
220
0.0
230
1.0
 70
     8
 71
     3
 72
     9
 73
     5
 74
     0
 42
0.0000000001
 43
0.0000000001
 40
0.0
 40
0.0
 40
0.0
 40
0.0
 40
0.1268080832296495
 40
1.0
 40
1.0
 40
1.0
 40
1.0
 10
0.4157399942162304
 20
0.7672035681260957
 30
0.0
 10
0.4157477354971784
 20
0.7672328836610659
 30
0.0
 10
0.4158087827171073
 20
0.7674640639944954
 30
0.0
 10
0.4158752221999862
 20
0.7675919233679752
 30
0.0
 10
0.4159332366193809
 20
0.7677035691393764
 30
0.0
  0
LINE
  5
1F20
330
1F
100
AcDbEntity
  8
0
  6
Continuous
 62
     7
370
    15
100
AcDbLine
 10
0.4143722249283844
 20
0.7677035691393764
 30
0.0
 11
0.4159332366193809
 21
0.7677035691393764
 31
0.0
  0
SPLINE
  5
1F21
330
1F
100
AcDbEntity
  8
0
  6
Continuous
 62
     7
370
    15
100
AcDbSpline
210
0.0
220
0.0
230
1.0
 70
     8
 71
     3
 72
     9
 73
     5
 74
     0
 42
0.0000000001
 43
0.0000000001
 40
0.0
 40
0.0
 40
0.0
 40
0.0
 40
0.2756401851644098
 40
1.0
 40
1.0
 40
1.0
 40
1.0
 10
0.4160742754131244
 20
0.7677035691393764
 30
0.0
 10
0.4160927839975983
 20
0.7676771572636162
 30
0.0
 10
0.4161599316250886
 20
0.7675813371431061
 30
0.0
 10
0.416222316401991
 20
0.7673622593069352
 30
0.0
 10
0.4162675054274345
 20
0.7672035681260957
 30
0.0
  0
LINE
  5
1F22
330
1F
100
AcDbEntity
  8
0
  6
Continuous
 62
     7
370
    15
100
AcDbLine
 10
0.4162675054274345
 20
0.7672035681260957
 30
0.0
 11
0.4162675054274345
 21
0.7650035681380148
 31
0.0
  0
SPLINE
  5
1F23
330
1F
100
AcDbEntity
  8
0
  6
Continuous
 62
     7
370
    15
100
AcDbSpline
210
0.0
220
0.0
230
1.0
 70
     8
 71
     3
 72
     9
 73
     5
 74
     0
 42
0.0000000001
 43
0.0000000001
 40
0.0
 40
0.0
 40
0.0
 40
0.0
 40
0.1268071480121822
 40
1.0
 40
1.0
 40
1.0
 40
1.0
 10
0.4162675054274345
 20
0.7650035681380148
 30
0.0
 10
0.4162597643065514
 20
0.7649742525906954
 30
0.0
 10
0.4161987178986593
 20
0.7647430704548358
 30
0.0
 10
0.4161322845437567
 20
0.7646152131083851
 30
0.0
 10
0.4160742754131244
 20
0.7645035689873863
 30
0.0
  0
LINE
  5
1F24
330
1F
100
AcDbEntity
  8
0
  6
Continuous
 62
     7
370
    15
100
AcDbLine
 10
0.4160742754131244
 20
0.7677035691393764
 30
0.0
 11
0.4159332366193809
 21
0.7677035691393764
 31
0.0
  0
SPLINE
  5
1F25
330
1F
100
AcDbEntity
  8
0
  6
Continuous
 62
     7
370
    15
100
AcDbSpline
210
0.0
220
0.0
230
1.0
 70
     8
 71
     3
 72
     9
 73
     5
 74
     0
 42
0.0000000001
 43
0.0000000001
 40
0.0
 40
0.0
 40
0.0
 40
0.0
 40
0.1268038087271907
 40
1.0
 40
1.0
 40
1.0
 40
1.0
 10
0.4087998788355796
 20
0.7650035681380148
 30
0.0
 10
0.4088076243643926
 20
0.7649742525669863
 30
0.0
 10
0.4088687071416786
 20
0.7647430641561462
 30
0.0
 10
0.4089351252230458
 20
0.764615210400155
 30
0.0
 10
0.408993121238737
 20
0.7645035689873863
 30
0.0
  0
SPLINE
  5
1F26
330
1F
100
AcDbEntity
  8
0
  6
Continuous
 62
     7
370
    15
100
AcDbSpline
210
0.0
220
0.0
230
1.0
 70
     8
 71
     3
 72
     9
 73
     5
 74
     0
 42
0.0000000001
 43
0.0000000001
 40
0.0
 40
0.0
 40
0.0
 40
0.0
 40
0.2756366816900334
 40
1.0
 40
1.0
 40
1.0
 40
1.0
 10
0.408993121238737
 20
0.7677035691393764
 30
0.0
 10
0.4089746081396362
 20
0.7676771570977454
 30
0.0
 10
0.4089074432797659
 20
0.7675813351575352
 30
0.0
 10
0.4088450640566421
 20
0.7673622589179664
 30
0.0
 10
0.4087998788355796
 20
0.7672035681260957
 30
0.0
  0
LINE
  5
1F27
330
1F
100
AcDbEntity
  8
0
  6
Continuous
 62
     7
370
    15
100
AcDbLine
 10
0.408993121238737
 20
0.7677035691393764
 30
0.0
 11
0.4099744186760717
 21
0.7677035691393764
 31
0.0
  0
SPLINE
  5
1F28
330
1F
100
AcDbEntity
  8
0
  6
Continuous
 62
     7
370
    15
100
AcDbSpline
210
0.0
220
0.0
230
1.0
 70
     8
 71
     3
 72
     9
 73
     5
 74
     0
 42
0.0000000001
 43
0.0000000001
 40
0.0
 40
0.0
 40
0.0
 40
0.0
 40
0.7224293582484628
 40
1.0
 40
1.0
 40
1.0
 40
1.0
 10
0.5322085015017137
 20
0.7672035681260957
 30
0.0
 10
0.5324823975126876
 20
0.7673618723298555
 30
0.0
 10
0.532861529406838
 20
0.7675809999192252
 30
0.0
 10
0.5332697307284562
 20
0.7676769392091155
 30
0.0
 10
0.5333830354312568
 20
0.7677035691393764
 30
0.0
  0
LINE
  5
1F29
330
1F
100
AcDbEntity
  8
0
  6
Continuous
 62
     7
370
    15
100
AcDbLine
 10
0.5342402699403692
 20
0.7677035691393764
 30
0.0
 11
0.5333830354312568
 21
0.7677035691393764
 31
0.0
  0
SPLINE
  5
1F2A
330
1F
100
AcDbEntity
  8
0
  6
Continuous
 62
     7
370
    15
100
AcDbSpline
210
0.0
220
0.0
230
1.0
 70
     8
 71
     3
 72
     9
 73
     5
 74
     0
 42
0.0000000001
 43
0.0000000001
 40
0.0
 40
0.0
 40
0.0
 40
0.0
 40
0.619502726416432
 40
1.0
 40
1.0
 40
1.0
 40
1.0
 10
0.5342402699403692
 20
0.7677035691393764
 30
0.0
 10
0.5344918480237268
 20
0.7676321312763754
 30
0.0
 10
0.5348979448375744
 20
0.767516816427955
 30
0.0
 10
0.535272341173795
 20
0.7672899066702551
 30
0.0
 10
0.5354147979589712
 20
0.7672035681260957
 30
0.0
  0
LINE
  5
1F2B
330
1F
100
AcDbEntity
  8
0
  6
Continuous
 62
     7
370
    15
100
AcDbLine
 10
0.5354147979589712
 20
0.7672035681260957
 30
0.0
 11
0.5354147979589712
 21
0.7650035681380148
 31
0.0
  0
SPLINE
  5
1F2C
330
1F
100
AcDbEntity
  8
0
  6
Continuous
 62
     7
370
    15
100
AcDbSpline
210
0.0
220
0.0
230
1.0
 70
     8
 71
     3
 72
     9
 73
     5
 74
     0
 42
0.0000000001
 43
0.0000000001
 40
0.0
 40
0.0
 40
0.0
 40
0.0
 40
0.7224283047642659
 40
1.0
 40
1.0
 40
1.0
 40
1.0
 10
0.5354147979589712
 20
0.7650035681380148
 30
0.0
 10
0.5351409040667079
 20
0.7648452632346457
 30
0.0
 10
0.5347617745524573
 20
0.764626134357325
 30
0.0
 10
0.5343535746729273
 20
0.764530198160246
 30
0.0
 10
0.5342402699403692
 20
0.7645035689873863
 30
0.0
  0
SPLINE
  5
1F2D
330
1F
100
AcDbEntity
  8
0
  6
Continuous
 62
     7
370
    15
100
AcDbSpline
210
0.0
220
0.0
230
1.0
 70
     8
 71
     3
 72
     9
 73
     5
 74
     0
 42
0.0000000001
 43
0.0000000001
 40
0.0
 40
0.0
 40
0.0
 40
0.0
 40
0.6194999162696643
 40
1.0
 40
1.0
 40
1.0
 40
1.0
 10
0.5333830354312568
 20
0.7645035689873863
 30
0.0
 10
0.5331314574942638
 20
0.7645750065886449
 30
0.0
 10
0.5327253590745755
 20
0.7646903215376656
 30
0.0
 10
0.5323509602759415
 20
0.7649172296009449
 30
0.0
 10
0.5322085015017137
 20
0.7650035681380148
 30
0.0
  0
LINE
  5
1F2E
330
1F
100
AcDbEntity
  8
0
  6
Continuous
 62
     7
370
    15
100
AcDbLine
 10
0.5322085015017137
 20
0.7672035681260957
 30
0.0
 11
0.5322085015017137
 21
0.7650035681380148
 31
0.0
  0
SPLINE
  5
1F2F
330
1F
100
AcDbEntity
  8
0
  6
Continuous
 62
     7
370
    15
100
AcDbSpline
210
0.0
220
0.0
230
1.0
 70
     8
 71
     3
 72
     9
 73
     5
 74
     0
 42
0.0000000001
 43
0.0000000001
 40
0.0
 40
0.0
 40
0.0
 40
0.0
 40
0.2756380206597476
 40
1.0
 40
1.0
 40
1.0
 40
1.0
 10
0.5367825720238528
 20
0.7645035689873863
 30
0.0
 10
0.5366515418683093
 20
0.7645299809981853
 30
0.0
 10
0.5361761714704514
 20
0.7646258023610651
 30
0.0
 10
0.5357346322109455
 20
0.7648448780432452
 30
0.0
 10
0.5354147979589712
 20
0.7650035681380148
 30
0.0
  0
SPLINE
  5
1F30
330
1F
100
AcDbEntity
  8
0
  6
Continuous
 62
     7
370
    15
100
AcDbSpline
210
0.0
220
0.0
230
1.0
 70
     8
 71
     3
 72
     9
 73
     5
 74
     0
 42
0.0000000001
 43
0.0000000001
 40
0.0
 40
0.0
 40
0.0
 40
0.0
 40
0.1268099154015514
 40
1.0
 40
1.0
 40
1.0
 40
1.0
 10
0.5354147979589712
 20
0.7672035681260957
 30
0.0
 10
0.5354696055067834
 20
0.7672328836480452
 30
0.0
 10
0.5359018078912854
 20
0.7674640605387565
 30
0.0
 10
0.5363720026354324
 20
0.7675919218821362
 30
0.0
 10
0.5367825720238528
 20
0.7677035691393764
 30
0.0
  0
LINE
  5
1F31
330
1F
100
AcDbEntity
  8
0
  6
Continuous
 62
     7
370
    15
100
AcDbLine
 10
0.5342402699403692
 20
0.7677035691393764
 30
0.0
 11
0.5367825720238528
 21
0.7677035691393764
 31
0.0
  0
SPLINE
  5
1F32
330
1F
100
AcDbEntity
  8
0
  6
Continuous
 62
     7
370
    15
100
AcDbSpline
210
0.0
220
0.0
230
1.0
 70
     8
 71
     3
 72
     9
 73
     5
 74
     0
 42
0.0000000001
 43
0.0000000001
 40
0.0
 40
0.0
 40
0.0
 40
0.0
 40
0.275637901883673
 40
1.0
 40
1.0
 40
1.0
 40
1.0
 10
0.537780842817476
 20
0.7677035691393764
 30
0.0
 10
0.5379118729828178
 20
0.767677157155516
 30
0.0
 10
0.5383872436210453
 20
0.7675813358490763
 30
0.0
 10
0.5388287827050595
 20
0.7673622590534349
 30
0.0
 10
0.5391486168823647
 20
0.7672035681260957
 30
0.0
  0
LINE
  5
1F33
330
1F
100
AcDbEntity
  8
0
  6
Continuous
 62
     7
370
    15
100
AcDbLine
 10
0.5391486168823647
 20
0.7672035681260957
 30
0.0
 11
0.5391486168823647
 21
0.7650035681380148
 31
0.0
  0
SPLINE
  5
1F34
330
1F
100
AcDbEntity
  8
0
  6
Continuous
 62
     7
370
    15
100
AcDbSpline
210
0.0
220
0.0
230
1.0
 70
     8
 71
     3
 72
     9
 73
     5
 74
     0
 42
0.0000000001
 43
0.0000000001
 40
0.0
 40
0.0
 40
0.0
 40
0.0
 40
0.1268062196918126
 40
1.0
 40
1.0
 40
1.0
 40
1.0
 10
0.5391486168823647
 20
0.7650035681380148
 30
0.0
 10
0.5390938108270547
 20
0.7649742525841051
 30
0.0
 10
0.538661607616227
 20
0.7647430687038365
 30
0.0
 10
0.5381914134441104
 20
0.7646152123555064
 30
0.0
 10
0.537780842817476
 20
0.7645035689873863
 30
0.0
  0
LINE
  5
1F35
330
1F
100
AcDbEntity
  8
0
  6
Continuous
 62
     7
370
    15
100
AcDbLine
 10
0.537780842817476
 20
0.7677035691393764
 30
0.0
 11
0.5367825720238528
 21
0.7677035691393764
 31
0.0
  0
SPLINE
  5
1F36
330
1F
100
AcDbEntity
  8
0
  6
Continuous
 62
     7
370
    15
100
AcDbSpline
210
0.0
220
0.0
230
1.0
 70
     8
 71
     3
 72
     9
 73
     5
 74
     0
 42
0.0000000001
 43
0.0000000001
 40
0.0
 40
0.0
 40
0.0
 40
0.0
 40
0.7224267136179763
 40
1.0
 40
1.0
 40
1.0
 40
1.0
 10
0.5391486168823647
 20
0.7672035681260957
 30
0.0
 10
0.539193679587342
 20
0.767361872620805
 30
0.0
 10
0.5392560564404292
 20
0.7675810014150953
 30
0.0
 10
0.5393232143896967
 20
0.7676769393355157
 30
0.0
 10
0.5393418556423839
 20
0.7677035691393764
 30
0.0
  0
LINE
  5
1F37
330
1F
100
AcDbEntity
  8
0
  6
Continuous
 62
     7
370
    15
100
AcDbLine
 10
0.537780842817476
 20
0.7677035691393764
 30
0.0
 11
0.5393418556423839
 21
0.7677035691393764
 31
0.0
  0
SPLINE
  5
1F38
330
1F
100
AcDbEntity
  8
0
  6
Continuous
 62
     7
370
    15
100
AcDbSpline
210
0.0
220
0.0
230
1.0
 70
     8
 71
     3
 72
     9
 73
     5
 74
     0
 42
0.0000000001
 43
0.0000000001
 40
0.0
 40
0.0
 40
0.0
 40
0.0
 40
0.6195009203898889
 40
1.0
 40
1.0
 40
1.0
 40
1.0
 10
0.5393418556423839
 20
0.7645035689873863
 30
0.0
 10
0.5393004628419078
 20
0.7645750063915954
 30
0.0
 10
0.5392336464755232
 20
0.7646903208356352
 30
0.0
 10
0.5391720531036626
 20
0.7649172295724859
 30
0.0
 10
0.5391486168823647
 20
0.7650035681380148
 30
0.0
  0
SPLINE
  5
1F39
330
1F
100
AcDbEntity
  8
0
  6
Continuous
 62
     7
370
    15
100
AcDbSpline
210
0.0
220
0.0
230
1.0
 70
     8
 71
     3
 72
     9
 73
     5
 74
     0
 42
0.0000000001
 43
0.0000000001
 40
0.0
 40
0.0
 40
0.0
 40
0.0
 40
0.7224314825682464
 40
1.0
 40
1.0
 40
1.0
 40
1.0
 10
0.5322085015017137
 20
0.7650035681380148
 30
0.0
 10
0.5322535633561642
 20
0.7648452635842559
 30
0.0
 10
0.5323159386201652
 20
0.7646261361547565
 30
0.0
 10
0.5323830998062107
 20
0.7645301983121263
 30
0.0
 10
0.5324017416370523
 20
0.7645035689873863
 30
0.0
  0
SPLINE
  5
1F3A
330
1F
100
AcDbEntity
  8
0
  6
Continuous
 62
     7
370
    15
100
AcDbSpline
210
0.0
220
0.0
230
1.0
 70
     8
 71
     3
 72
     9
 73
     5
 74
     0
 42
0.0000000001
 43
0.0000000001
 40
0.0
 40
0.0
 40
0.0
 40
0.0
 40
0.6195008744425655
 40
1.0
 40
1.0
 40
1.0
 40
1.0
 10
0.5324017416370523
 20
0.7677035691393764
 30
0.0
 10
0.5323603518081299
 20
0.7676321309129451
 30
0.0
 10
0.532293540233483
 20
0.7675168151331365
 30
0.0
 10
0.5322319402438893
 20
0.7672899066177762
 30
0.0
 10
0.5322085015017137
 20
0.7672035681260957
 30
0.0
  0
LINE
  5
1F3B
330
1F
100
AcDbEntity
  8
0
  6
Continuous
 62
     7
370
    15
100
AcDbLine
 10
0.5324017416370523
 20
0.7677035691393764
 30
0.0
 11
0.5333830354312568
 21
0.7677035691393764
 31
0.0
  0
SPLINE
  5
1F3C
330
1F
100
AcDbEntity
  8
0
  6
Continuous
 62
     7
370
    15
100
AcDbSpline
210
0.0
220
0.0
230
1.0
 70
     8
 71
     3
 72
     9
 73
     5
 74
     0
 42
0.0000000001
 43
0.0000000001
 40
0.0
 40
0.0
 40
0.0
 40
0.0
 40
0.6194995292804508
 40
1.0
 40
1.0
 40
1.0
 40
1.0
 10
0.5394828933022131
 20
0.7677035691393764
 30
0.0
 10
0.5395242841915149
 20
0.767632130648975
 30
0.0
 10
0.5395910976229032
 20
0.767516814192655
 30
0.0
 10
0.5396526911576487
 20
0.7672899065796556
 30
0.0
 10
0.5396761275266115
 20
0.7672035681260957
 30
0.0
  0
LINE
  5
1F3D
330
1F
100
AcDbEntity
  8
0
  6
Continuous
 62
     7
370
    15
100
AcDbLine
 10
0.5396761275266115
 20
0.7672035681260957
 30
0.0
 11
0.5396761275266115
 21
0.7650035681380148
 31
0.0
  0
SPLINE
  5
1F3E
330
1F
100
AcDbEntity
  8
0
  6
Continuous
 62
     7
370
    15
100
AcDbSpline
210
0.0
220
0.0
230
1.0
 70
     8
 71
     3
 72
     9
 73
     5
 74
     0
 42
0.0000000001
 43
0.0000000001
 40
0.0
 40
0.0
 40
0.0
 40
0.0
 40
0.7224298015945488
 40
1.0
 40
1.0
 40
1.0
 40
1.0
 10
0.5396761275266115
 20
0.7650035681380148
 30
0.0
 10
0.5396310636719193
 20
0.7648452633993265
 30
0.0
 10
0.5395686854940172
 20
0.764626135203965
 30
0.0
 10
0.5395015328695223
 20
0.7645301982317853
 30
0.0
 10
0.5394828933022131
 20
0.7645035689873863
 30
0.0
  0
LINE
  5
1F3F
330
1F
100
AcDbEntity
  8
0
  6
Continuous
 62
     7
370
    15
100
AcDbLine
 10
0.5394828933022131
 20
0.7677035691393764
 30
0.0
 11
0.5393418556423839
 21
0.7677035691393764
 31
0.0
  0
SPLINE
  5
1F40
330
1F
100
AcDbEntity
  8
0
  6
Continuous
 62
     7
370
    15
100
AcDbSpline
210
0.0
220
0.0
230
1.0
 70
     8
 71
     3
 72
     9
 73
     5
 74
     0
 42
0.0000000001
 43
0.0000000001
 40
0.0
 40
0.0
 40
0.0
 40
0.0
 40
0.722427554089314
 40
1.0
 40
1.0
 40
1.0
 40
1.0
 10
0.6588234192235163
 20
0.7672035681260957
 30
0.0
 10
0.6591423779040682
 20
0.7673618725283456
 30
0.0
 10
0.6595838874765434
 20
0.7675810009397049
 30
0.0
 10
0.6600592479102758
 20
0.7676769392953452
 30
0.0
 10
0.6601911948685526
 20
0.7677035691393764
 30
0.0
  0
LINE
  5
1F41
330
1F
100
AcDbEntity
  8
0
  6
Continuous
 62
     7
370
    15
100
AcDbLine
 10
0.6611894595463923
 20
0.7677035691393764
 30
0.0
 11
0.6601911948685526
 21
0.7677035691393764
 31
0.0
  0
SPLINE
  5
1F42
330
1F
100
AcDbEntity
  8
0
  6
Continuous
 62
     7
370
    15
100
AcDbSpline
210
0.0
220
0.0
230
1.0
 70
     8
 71
     3
 72
     9
 73
     5
 74
     0
 42
0.0000000001
 43
0.0000000001
 40
0.0
 40
0.0
 40
0.0
 40
0.0
 40
0.6195017127994845
 40
1.0
 40
1.0
 40
1.0
 40
1.0
 10
0.6611894595463923
 20
0.7677035691393764
 30
0.0
 10
0.6614824292060533
 20
0.767632131077466
 30
0.0
 10
0.661955340989195
 20
0.7675168157192757
 30
0.0
 10
0.6623913387791376
 20
0.7672899066415261
 30
0.0
 10
0.6625572351914357
 20
0.7672035681260957
 30
0.0
  0
LINE
  5
1F43
330
1F
100
AcDbEntity
  8
0
  6
Continuous
 62
     7
370
    15
100
AcDbLine
 10
0.6625572351914357
 20
0.7672035681260957
 30
0.0
 11
0.6625572351914357
 21
0.7650035681380148
 31
0.0
  0
SPLINE
  5
1F44
330
1F
100
AcDbEntity
  8
0
  6
Continuous
 62
     7
370
    15
100
AcDbSpline
210
0.0
220
0.0
230
1.0
 70
     8
 71
     3
 72
     9
 73
     5
 74
     0
 42
0.0000000001
 43
0.0000000001
 40
0.0
 40
0.0
 40
0.0
 40
0.0
 40
0.7224277305831062
 40
1.0
 40
1.0
 40
1.0
 40
1.0
 10
0.6625572351914357
 20
0.7650035681380148
 30
0.0
 10
0.6622382766207844
 20
0.7648452631714856
 30
0.0
 10
0.6617967673082887
 20
0.7646261340325661
 30
0.0
 10
0.6613214065193702
 20
0.764530198132796
 30
0.0
 10
0.6611894595463923
 20
0.7645035689873863
 30
0.0
  0
SPLINE
  5
1F45
330
1F
100
AcDbEntity
  8
0
  6
Continuous
 62
     7
370
    15
100
AcDbSpline
210
0.0
220
0.0
230
1.0
 70
     8
 71
     3
 72
     9
 73
     5
 74
     0
 42
0.0000000001
 43
0.0000000001
 40
0.0
 40
0.0
 40
0.0
 40
0.0
 40
0.6195015929729096
 40
1.0
 40
1.0
 40
1.0
 40
1.0
 10
0.6601911948685526
 20
0.7645035689873863
 30
0.0
 10
0.6598982251668204
 20
0.764575006259605
 30
0.0
 10
0.6594253132242898
 20
0.7646903203653962
 30
0.0
 10
0.6589893156181281
 20
0.7649172295534362
 30
0.0
 10
0.6588234192235163
 20
0.7650035681380148
 30
0.0
  0
LINE
  5
1F46
330
1F
100
AcDbEntity
  8
0
  6
Continuous
 62
     7
370
    15
100
AcDbLine
 10
0.6588234192235163
 20
0.7672035681260957
 30
0.0
 11
0.6588234192235163
 21
0.7650035681380148
 31
0.0
  0
SPLINE
  5
1F47
330
1F
100
AcDbEntity
  8
0
  6
Continuous
 62
     7
370
    15
100
AcDbSpline
210
0.0
220
0.0
230
1.0
 70
     8
 71
     3
 72
     9
 73
     5
 74
     0
 42
0.0000000001
 43
0.0000000001
 40
0.0
 40
0.0
 40
0.0
 40
0.0
 40
0.1268067113377513
 40
1.0
 40
1.0
 40
1.0
 40
1.0
 10
0.6588234192235163
 20
0.7650035681380148
 30
0.0
 10
0.6587763568302449
 20
0.7649742525875957
 30
0.0
 10
0.6584052219528047
 20
0.7647430696311764
 30
0.0
 10
0.6580014549160822
 20
0.7646152127542362
 30
0.0
 10
0.6576488882494402
 20
0.7645035689873863
 30
0.0
  0
SPLINE
  5
1F48
330
1F
100
AcDbEntity
  8
0
  6
Continuous
 62
     7
370
    15
100
AcDbSpline
210
0.0
220
0.0
230
1.0
 70
     8
 71
     3
 72
     9
 73
     5
 74
     0
 42
0.0000000001
 43
0.0000000001
 40
0.0
 40
0.0
 40
0.0
 40
0.0
 40
0.2756379305250278
 40
1.0
 40
1.0
 40
1.0
 40
1.0
 10
0.6576488882494402
 20
0.7677035691393764
 30
0.0
 10
0.6577614057897634
 20
0.767677157156866
 30
0.0
 10
0.6581696135430022
 20
0.7675813358653051
 30
0.0
 10
0.6585487715470464
 20
0.7673622590566163
 30
0.0
 10
0.6588234192235163
 20
0.7672035681260957
 30
0.0
  0
LINE
  5
1F49
330
1F
100
AcDbEntity
  8
0
  6
Continuous
 62
     7
370
    15
100
AcDbLine
 10
0.6576488882494402
 20
0.7677035691393764
 30
0.0
 11
0.6601911948685526
 21
0.7677035691393764
 31
0.0
  0
SPLINE
  5
1F4A
330
1F
100
AcDbEntity
  8
0
  6
Continuous
 62
     7
370
    15
100
AcDbSpline
210
0.0
220
0.0
230
1.0
 70
     8
 71
     3
 72
     9
 73
     5
 74
     0
 42
0.0000000001
 43
0.0000000001
 40
0.0
 40
0.0
 40
0.0
 40
0.0
 40
0.1268063778234636
 40
1.0
 40
1.0
 40
1.0
 40
1.0
 10
0.6556171198107847
 20
0.7672035681260957
 30
0.0
 10
0.6556641822049931
 20
0.7672328836731664
 30
0.0
 10
0.6560353180659462
 20
0.7674640672112164
 30
0.0
 10
0.6564390860829974
 20
0.7675919247510449
 30
0.0
 10
0.6567916537403278
 20
0.7677035691393764
 30
0.0
  0
SPLINE
  5
1F4B
330
1F
100
AcDbEntity
  8
0
  6
Continuous
 62
     7
370
    15
100
AcDbSpline
210
0.0
220
0.0
230
1.0
 70
     8
 71
     3
 72
     9
 73
     5
 74
     0
 42
0.0000000001
 43
0.0000000001
 40
0.0
 40
0.0
 40
0.0
 40
0.0
 40
0.275637438518536
 40
1.0
 40
1.0
 40
1.0
 40
1.0
 10
0.6567916537403278
 20
0.7645035689873863
 30
0.0
 10
0.6566791362168303
 20
0.7645299810257454
 30
0.0
 10
0.6562709277960082
 20
0.7646258026909861
 30
0.0
 10
0.6558917685635919
 20
0.7648448781078762
 30
0.0
 10
0.6556171198107847
 20
0.7650035681380148
 30
0.0
  0
LINE
  5
1F4C
330
1F
100
AcDbEntity
  8
0
  6
Continuous
 62
     7
370
    15
100
AcDbLine
 10
0.6556171198107847
 20
0.7672035681260957
 30
0.0
 11
0.6556171198107847
 21
0.7650035681380148
 31
0.0
  0
LINE
  5
1F4D
330
1F
100
AcDbEntity
  8
0
  6
Continuous
 62
     7
370
    15
100
AcDbLine
 10
0.6576488882494402
 20
0.7677035691393764
 30
0.0
 11
0.6567916537403278
 21
0.7677035691393764
 31
0.0
  0
SPLINE
  5
1F4E
330
1F
100
AcDbEntity
  8
0
  6
Continuous
 62
     7
370
    15
100
AcDbSpline
210
0.0
220
0.0
230
1.0
 70
     8
 71
     3
 72
     9
 73
     5
 74
     0
 42
0.0000000001
 43
0.0000000001
 40
0.0
 40
0.0
 40
0.0
 40
0.0
 40
0.6195015929729096
 40
1.0
 40
1.0
 40
1.0
 40
1.0
 10
0.6627504769069281
 20
0.7645035689873863
 30
0.0
 10
0.6627090846366457
 20
0.764575006259605
 30
0.0
 10
0.6626422691986349
 20
0.7646903203653962
 30
0.0
 10
0.66258067259934
 20
0.7649172295534362
 30
0.0
 10
0.6625572351914357
 20
0.7650035681380148
 30
0.0
  0
SPLINE
  5
1F4F
330
1F
100
AcDbEntity
  8
0
  6
Continuous
 62
     7
370
    15
100
AcDbSpline
210
0.0
220
0.0
230
1.0
 70
     8
 71
     3
 72
     9
 73
     5
 74
     0
 42
0.0000000001
 43
0.0000000001
 40
0.0
 40
0.0
 40
0.0
 40
0.0
 40
0.722427554089314
 40
1.0
 40
1.0
 40
1.0
 40
1.0
 10
0.6625572351914357
 20
0.7672035681260957
 30
0.0
 10
0.6626022968963161
 20
0.7673618725283456
 30
0.0
 10
0.6626646722924718
 20
0.7675810009397049
 30
0.0
 10
0.662731834522476
 20
0.7676769392953452
 30
0.0
 10
0.6627504769069281
 20
0.7677035691393764
 30
0.0
  0
LINE
  5
1F50
330
1F
100
AcDbEntity
  8
0
  6
Continuous
 62
     7
370
    15
100
AcDbLine
 10
0.6611894595463923
 20
0.7677035691393764
 30
0.0
 11
0.6627504769069281
 21
0.7677035691393764
 31
0.0
  0
SPLINE
  5
1F51
330
1F
100
AcDbEntity
  8
0
  6
Continuous
 62
     7
370
    15
100
AcDbSpline
210
0.0
220
0.0
230
1.0
 70
     8
 71
     3
 72
     9
 73
     5
 74
     0
 42
0.0000000001
 43
0.0000000001
 40
0.0
 40
0.0
 40
0.0
 40
0.0
 40
0.6195017127994845
 40
1.0
 40
1.0
 40
1.0
 40
1.0
 10
0.6628915070756634
 20
0.7677035691393764
 30
0.0
 10
0.6629328993399985
 20
0.767632131077466
 30
0.0
 10
0.6629997147554931
 20
0.7675168157192757
 30
0.0
 10
0.6630613113807513
 20
0.7672899066415261
 30
0.0
 10
0.6630847487911566
 20
0.7672035681260957
 30
0.0
  0
LINE
  5
1F52
330
1F
100
AcDbEntity
  8
0
  6
Continuous
 62
     7
370
    15
100
AcDbLine
 10
0.6630847487911566
 20
0.7672035681260957
 30
0.0
 11
0.6630847487911566
 21
0.7650035681380148
 31
0.0
  0
SPLINE
  5
1F53
330
1F
100
AcDbEntity
  8
0
  6
Continuous
 62
     7
370
    15
100
AcDbSpline
210
0.0
220
0.0
230
1.0
 70
     8
 71
     3
 72
     9
 73
     5
 74
     0
 42
0.0000000001
 43
0.0000000001
 40
0.0
 40
0.0
 40
0.0
 40
0.0
 40
0.7224277305831062
 40
1.0
 40
1.0
 40
1.0
 40
1.0
 10
0.6630847487911566
 20
0.7650035681380148
 30
0.0
 10
0.6630396871018007
 20
0.7648452631714856
 30
0.0
 10
0.6629773117423738
 20
0.7646261340325661
 30
0.0
 10
0.662910149462193
 20
0.764530198132796
 30
0.0
 10
0.6628915070756634
 20
0.7645035689873863
 30
0.0
  0
LINE
  5
1F54
330
1F
100
AcDbEntity
  8
0
  6
Continuous
 62
     7
370
    15
100
AcDbLine
 10
0.6628915070756634
 20
0.7677035691393764
 30
0.0
 11
0.6627504769069281
 21
0.7677035691393764
 31
0.0
  0
SPLINE
  5
1F55
330
1F
100
AcDbEntity
  8
0
  6
Continuous
 62
     7
370
    15
100
AcDbSpline
210
0.0
220
0.0
230
1.0
 70
     8
 71
     3
 72
     9
 73
     5
 74
     0
 42
0.0000000001
 43
0.0000000001
 40
0.0
 40
0.0
 40
0.0
 40
0.0
 40
0.7224274230880852
 40
1.0
 40
1.0
 40
1.0
 40
1.0
 10
0.6556171198107847
 20
0.7650035681380148
 30
0.0
 10
0.6556621828681983
 20
0.7648452631376549
 30
0.0
 10
0.655724560147875
 20
0.7646261338586359
 30
0.0
 10
0.6557917221513714
 20
0.7645301981181055
 30
0.0
 10
0.6558103644817521
 20
0.7645035689873863
 30
0.0
  0
SPLINE
  5
1F56
330
1F
100
AcDbEntity
  8
0
  6
Continuous
 62
     7
370
    15
100
AcDbSpline
210
0.0
220
0.0
230
1.0
 70
     8
 71
     3
 72
     9
 73
     5
 74
     0
 42
0.0000000001
 43
0.0000000001
 40
0.0
 40
0.0
 40
0.0
 40
0.0
 40
0.6195023853765994
 40
1.0
 40
1.0
 40
1.0
 40
1.0
 10
0.6558103644817521
 20
0.7677035691393764
 30
0.0
 10
0.6557689727476017
 20
0.7676321312094564
 30
0.0
 10
0.6557021582604889
 20
0.7675168161895162
 30
0.0
 10
0.6556405584077956
 20
0.7672899066605863
 30
0.0
 10
0.6556171198107847
 20
0.7672035681260957
 30
0.0
  0
LINE
  5
1F57
330
1F
100
AcDbEntity
  8
0
  6
Continuous
 62
     7
370
    15
100
AcDbLine
 10
0.6558103644817521
 20
0.7677035691393764
 30
0.0
 11
0.6567916537403278
 21
0.7677035691393764
 31
0.0
  0
LINE
  5
1F58
330
1F
100
AcDbEntity
  8
0
  6
Continuous
 62
     7
370
    15
100
AcDbLine
 10
0.6581334104533099
 20
0.7677535681231155
 30
0.0
 11
0.6573509419820667
 21
0.7677535681231155
 31
0.0
  0
LINE
  5
1F59
330
1F
100
AcDbEntity
  8
0
  6
Continuous
 62
     7
370
    15
100
AcDbLine
 10
0.6613509386465992
 20
0.7677535681231155
 30
0.0
 11
0.6581334104533099
 21
0.7677535681231155
 31
0.0
  0
LINE
  5
1F5A
330
1F
100
AcDbEntity
  8
0
  6
Continuous
 62
     7
370
    15
100
AcDbLine
 10
0.6585899847181471
 20
0.7685035677803852
 30
0.0
 11
0.6606009387050449
 21
0.7685035677803852
 31
0.0
  0
LINE
  5
1F5B
330
1F
100
AcDbEntity
  8
0
  6
Continuous
 62
     7
370
    15
100
AcDbLine
 10
0.6581009328523644
 20
0.7685035677803852
 30
0.0
 11
0.6585899847181471
 21
0.7685035677803852
 31
0.0
  0
LINE
  5
1F5C
330
1F
100
AcDbEntity
  8
0
  6
Continuous
 62
     7
370
    15
100
AcDbLine
 10
0.5379423128464254
 20
0.7677535681231155
 30
0.0
 11
0.5339423161818999
 21
0.7677535681231155
 31
0.0
  0
LINE
  5
1F5D
330
1F
100
AcDbEntity
  8
0
  6
Continuous
 62
     7
370
    15
100
AcDbLine
 10
0.5346923190789212
 20
0.7685035677803852
 30
0.0
 11
0.5371923158603451
 21
0.7685035677803852
 31
0.0
  0
LINE
  5
1F5E
330
1F
100
AcDbEntity
  8
0
  6
Continuous
 62
     7
370
    15
100
AcDbLine
 10
0.4145336972251457
 20
0.7677535681231155
 30
0.0
 11
0.4105336994267077
 21
0.7677535681231155
 31
0.0
  0
LINE
  5
1F5F
330
1F
100
AcDbEntity
  8
0
  6
Continuous
 62
     7
370
    15
100
AcDbLine
 10
0.4137729989759356
 20
0.7685035677803852
 30
0.0
 11
0.4137836943281242
 21
0.7685035677803852
 31
0.0
  0
LINE
  5
1F60
330
1F
100
AcDbEntity
  8
0
  6
Continuous
 62
     7
370
    15
100
AcDbLine
 10
0.4112837023237361
 20
0.7685035677803852
 30
0.0
 11
0.4137729989759356
 21
0.7685035677803852
 31
0.0
  0
LINE
  5
1F7D
330
1F
100
AcDbEntity
  8
0
  6
Continuous
 62
     7
370
    15
100
AcDbLine
 10
0.4385404896932021
 20
0.7505035685552562
 30
0.0
 11
0.6959423136390228
 21
0.7505035685552562
 31
0.0
  0
LINE
  5
1F7E
330
1F
100
AcDbEntity
  8
0
  6
Continuous
 62
     7
370
    15
100
AcDbLine
 10
0.3759423120261554
 20
0.7505035685552562
 30
0.0
 11
0.4385404896932021
 21
0.7505035685552562
 31
0.0
  0
LINE
  5
1F7F
330
1F
100
AcDbEntity
  8
0
  6
Continuous
 62
     7
370
    15
100
AcDbLine
 10
0.4385404896932021
 20
0.7525035688830765
 30
0.0
 11
0.6959423136390228
 21
0.7525035688830765
 31
0.0
  0
LINE
  5
1F80
330
1F
100
AcDbEntity
  8
0
  6
Continuous
 62
     7
370
    15
100
AcDbLine
 10
0.3759423120261554
 20
0.7525035688830765
 30
0.0
 11
0.4385404896932021
 21
0.7525035688830765
 31
0.0
  0
LINE
  5
1F81
330
1F
100
AcDbEntity
  8
0
  6
Continuous
 62
     7
370
    15
100
AcDbLine
 10
0.4385404896932021
 20
0.7625035686595555
 30
0.0
 11
0.6959423136390228
 21
0.7625035686595555
 31
0.0
  0
LINE
  5
1F82
330
1F
100
AcDbEntity
  8
0
  6
Continuous
 62
     7
370
    15
100
AcDbLine
 10
0.3759423120261554
 20
0.7625035686595555
 30
0.0
 11
0.4385404896932021
 21
0.7625035686595555
 31
0.0
  0
LINE
  5
1F83
330
1F
100
AcDbEntity
  8
0
  6
Continuous
 62
     7
370
    15
100
AcDbLine
 10
0.4385404896932021
 20
0.7645035689873863
 30
0.0
 11
0.6959423136390228
 21
0.7645035689873863
 31
0.0
  0
LINE
  5
1F84
102
{ACAD_REACTORS
102
}
330
1F
100
AcDbEntity
  8
0
  6
Continuous
 62
     7
370
    15
100
AcDbLine
 10
0.3759423120261554
 20
0.7645035689873863
 30
0.0
 11
0.4385404896932021
 21
0.7645035689873863
 31
0.0
  0
POINT
  5
1F89
330
1F
100
AcDbEntity
  8
0
  6
Continuous
 62
     7
370
    15
100
AcDbPoint
 10
0.3759423120261554
 20
0.7645035689873863
 30
0.0
  0
ENDSEC
  0
SECTION
  2
OBJECTS
  0
DICTIONARY
  5
C
330
0
100
AcDbDictionary
281
     1
  3
ACAD_GROUP
350
D
  3
ACAD_IMAGE_VARS
350
1794
  3
ACAD_LAYOUT
350
1A
  3
ACAD_MLINESTYLE
350
17
  3
ACAD_PLOTSETTINGS
350
19
  3
ACAD_PLOTSTYLENAME
350
E
  3
ACAD_SCALELIST
350
99
  3
AcDbVariableDictionary
350
59
  3
APPDATA
350
1793
  3
DWGPROPS
350
1FB3
  0
DICTIONARY
  5
174A
330
10
100
AcDbDictionary
280
     1
281
     1
  3
ADSK_XREC_LAYER_RECONCILED
360
1063
  0
DICTIONARY
  5
174B
330
C1
100
AcDbDictionary
280
     1
281
     1
  3
ADSK_XREC_LAYER_RECONCILED
360
1065
  0
DICTIONARY
  5
174C
330
100
100
AcDbDictionary
280
     1
281
     1
  3
ADSK_XREC_LAYER_RECONCILED
360
1067
  0
DICTIONARY
  5
D
102
{ACAD_REACTORS
330
C
102
}
330
C
100
AcDbDictionary
281
     1
  0
RASTERVARIABLES
  5
1794
102
{ACAD_REACTORS
330
C
102
}
330
C
100
AcDbRasterVariables
 90
        0
 70
     1
 71
     1
 72
     5
  0
DICTIONARY
  5
1A
102
{ACAD_REACTORS
330
C
102
}
330
C
100
AcDbDictionary
281
     1
  3
Layout1
350
74
  3
Layout2
350
BF
  3
Model
350
22
  0
DICTIONARY
  5
17
102
{ACAD_REACTORS
330
C
102
}
330
C
100
AcDbDictionary
281
     1
  3
Standard
350
18
  0
DICTIONARY
  5
19
102
{ACAD_REACTORS
330
C
102
}
330
C
100
AcDbDictionary
281
     1
  0
ACDBDICTIONARYWDFLT
  5
E
102
{ACAD_REACTORS
330
C
102
}
330
C
100
AcDbDictionary
281
     1
  3
Normal
350
F
100
AcDbDictionaryWithDefault
340
F
  0
DICTIONARY
  5
99
102
{ACAD_REACTORS
330
C
102
}
330
C
100
AcDbDictionary
281
     1
  3
A0
350
1D9
  3
A1
350
1DA
  3
A2
350
1DB
  3
A3
350
1DC
  3
A4
350
1DD
  3
A5
350
1DE
  3
A6
350
1DF
  3
A7
350
1E0
  3
A8
350
1E1
  3
A9
350
1E2
  3
B0
350
1E3
  3
B1
350
1E4
  3
B2
350
1E5
  3
B3
350
1E6
  3
B4
350
1E7
  3
B5
350
1E8
  3
B6
350
1E9
  3
B7
350
1EA
  3
B8
350
1EB
  3
B9
350
1EC
  3
C0
350
1ED
  3
C1
350
1EE
  3
C2
350
1EF
  3
C3
350
1F0
  3
C4
350
1F1
  3
C5
350
1F2
  3
C6
350
1F3
  3
C7
350
1F4
  3
C8
350
1F5
  3
C9
350
1F6
  3
D0
350
1F7
  3
D1
350
1F8
  3
D2
350
1F9
  0
DICTIONARY
  5
59
102
{ACAD_REACTORS
330
C
102
}
330
C
100
AcDbDictionary
281
     1
  3
CANNOSCALE
350
1FB4
  3
DIMASSOC
350
1D7
  3
HIDETEXT
350
1D8
  0
DICTIONARY
  5
1793
102
{ACAD_REACTORS
330
C
102
}
330
C
100
AcDbDictionary
281
     1
  0
XRECORD
  5
1FB3
102
{ACAD_REACTORS
330
C
102
}
330
C
100
AcDbXrecord
280
     1
  1
DWGPROPS COOKIE
  2

  3

  4

  6

  7

  8
ClaudiaR
  9

300
=
301
=
302
=
303
=
304
=
305
=
306
=
307
=
308
=
309
=
 40
0.0
 41
2453353.717125822
 42
2456443.453426273
  1

 90
        0
  0
XRECORD
  5
1063
102
{ACAD_REACTORS
330
174A
102
}
330
174A
100
AcDbXrecord
280
     1
290
     1
  0
XRECORD
  5
1065
102
{ACAD_REACTORS
330
174B
102
}
330
174B
100
AcDbXrecord
280
     1
290
     1
  0
XRECORD
  5
1067
102
{ACAD_REACTORS
330
174C
102
}
330
174C
100
AcDbXrecord
280
     1
290
     1
  0
LAYOUT
  5
74
102
{ACAD_REACTORS
330
1A
102
}
330
1A
100
AcDbPlotSettings
  1

  2
\\ADSCCNDC1\hq601xrx1
  4

  6

 40
0.0
 41
0.0
 42
0.0
 43
0.0
 44
0.0
 45
0.0
 46
0.0
 47
0.0
 48
0.0
 49
0.0
140
0.0
141
0.0
142
1.0
143
1.0
 70
   544
 72
     0
 73
     0
 74
     5
  7
monochrome.stb
 75
    16
147
1.0
148
0.0
149
0.0
100
AcDbLayout
  1
Layout1
 70
     1
 71
     1
 10
0.0
 20
0.0
 11
12.0
 21
9.0
 12
0.0
 22
0.0
 32
0.0
 14
0.0
 24
0.0
 34
0.0
 15
0.0
 25
0.0
 35
0.0
146
0.0
 13
0.0
 23
0.0
 33
0.0
 16
1.0
 26
0.0
 36
0.0
 17
0.0
 27
1.0
 37
0.0
 76
     0
330
73
  0
LAYOUT
  5
BF
102
{ACAD_REACTORS
330
1A
102
}
330
1A
100
AcDbPlotSettings
  1

  2
none_device
  4
Sun_Hi-Res_(1280.00_x_1600.00_Pixels)
  6

 40
0.0
 41
0.0
 42
0.0
 43
0.0
 44
1280.0
 45
1600.0
 46
0.0
 47
0.0
 48
0.0
 49
0.0
140
0.0
141
0.0
142
1.0
143
1.0
 70
   544
 72
     2
 73
     0
 74
     5
  7
monochrome.stb
 75
    16
147
1.0
148
0.0
149
0.0
100
AcDbLayout
  1
Layout2
 70
     1
 71
     2
 10
0.0
 20
0.0
 11
12.0
 21
9.0
 12
0.0
 22
0.0
 32
0.0
 14
1.000000000000000E+20
 24
1.000000000000000E+20
 34
1.000000000000000E+20
 15
-1.000000000000000E+20
 25
-1.000000000000000E+20
 35
-1.000000000000000E+20
146
0.0
 13
0.0
 23
0.0
 33
0.0
 16
1.0
 26
0.0
 36
0.0
 17
0.0
 27
1.0
 37
0.0
 76
     0
330
BE
  0
LAYOUT
  5
22
102
{ACAD_REACTORS
330
1A
102
}
330
1A
100
AcDbPlotSettings
  1

  2
none_device
  4
Sun_Hi-Res_(1280.00_x_1600.00_Pixels)
  6

 40
6.349999904632567
 41
6.349999904632567
 42
6.350006103515625
 43
6.350006103515625
 44
1280.0
 45
1600.0
 46
0.0
 47
0.0
 48
-0.5012000000000001
 49
-1.6335
140
1.5035
141
1.0708
142
1.0
143
0.0016901875
 70
 11956
 72
     2
 73
     0
 74
     4
  7
monochrome.stb
 75
     0
147
0.28088241027059
148
0.1311165230791651
149
0.096403374003771
100
AcDbLayout
  1
Model
 70
     1
 71
     0
 10
0.0
 20
0.0
 11
12.0
 21
9.0
 12
0.0
 22
0.0
 32
0.0
 14
-0.3493025536504581
 24
-1.393514370384444
 34
0.0
 15
1.139322025340084
 25
0.8566575781878121
 35
0.0
146
0.0
 13
0.0
 23
0.0
 33
0.0
 16
1.0
 26
0.0
 36
0.0
 17
0.0
 27
1.0
 37
0.0
 76
     0
330
1F
331
97
  0
MLINESTYLE
  5
18
102
{ACAD_REACTORS
330
17
102
}
330
17
100
AcDbMlineStyle
  2
Standard
 70
     0
  3

 62
   256
 51
90.0
 52
90.0
 71
     2
 49
0.5
 62
   256
  6
BYLAYER
 49
-0.5
 62
   256
  6
BYLAYER
  0
ACDBPLACEHOLDER
  5
F
102
{ACAD_REACTORS
330
E
102
}
330
E
  0
SCALE
  5
1D9
102
{ACAD_REACTORS
330
99
102
}
330
99
100
AcDbScale
 70
     0
300
1:1
140
1.0
141
1.0
290
     1
  0
SCALE
  5
1DA
102
{ACAD_REACTORS
330
99
102
}
330
99
100
AcDbScale
 70
     0
300
1:2
140
1.0
141
2.0
290
     0
  0
SCALE
  5
1DB
102
{ACAD_REACTORS
330
99
102
}
330
99
100
AcDbScale
 70
     0
300
1:4
140
1.0
141
4.0
290
     0
  0
SCALE
  5
1DC
102
{ACAD_REACTORS
330
99
102
}
330
99
100
AcDbScale
 70
     0
300
1:5
140
1.0
141
5.0
290
     0
  0
SCALE
  5
1DD
102
{ACAD_REACTORS
330
99
102
}
330
99
100
AcDbScale
 70
     0
300
1:8
140
1.0
141
8.0
290
     0
  0
SCALE
  5
1DE
102
{ACAD_REACTORS
330
99
102
}
330
99
100
AcDbScale
 70
     0
300
1:10
140
1.0
141
10.0
290
     0
  0
SCALE
  5
1DF
102
{ACAD_REACTORS
330
99
102
}
330
99
100
AcDbScale
 70
     0
300
1:16
140
1.0
141
16.0
290
     0
  0
SCALE
  5
1E0
102
{ACAD_REACTORS
330
99
102
}
330
99
100
AcDbScale
 70
     0
300
1:20
140
1.0
141
20.0
290
     0
  0
SCALE
  5
1E1
102
{ACAD_REACTORS
330
99
102
}
330
99
100
AcDbScale
 70
     0
300
1:30
140
1.0
141
30.0
290
     0
  0
SCALE
  5
1E2
102
{ACAD_REACTORS
330
99
102
}
330
99
100
AcDbScale
 70
     0
300
1:40
140
1.0
141
40.0
290
     0
  0
SCALE
  5
1E3
102
{ACAD_REACTORS
330
99
102
}
330
99
100
AcDbScale
 70
     0
300
1:50
140
1.0
141
50.0
290
     0
  0
SCALE
  5
1E4
102
{ACAD_REACTORS
330
99
102
}
330
99
100
AcDbScale
 70
     0
300
1:100
140
1.0
141
100.0
290
     0
  0
SCALE
  5
1E5
102
{ACAD_REACTORS
330
99
102
}
330
99
100
AcDbScale
 70
     0
300
2:1
140
2.0
141
1.0
290
     0
  0
SCALE
  5
1E6
102
{ACAD_REACTORS
330
99
102
}
330
99
100
AcDbScale
 70
     0
300
4:1
140
4.0
141
1.0
290
     0
  0
SCALE
  5
1E7
102
{ACAD_REACTORS
330
99
102
}
330
99
100
AcDbScale
 70
     0
300
8:1
140
8.0
141
1.0
290
     0
  0
SCALE
  5
1E8
102
{ACAD_REACTORS
330
99
102
}
330
99
100
AcDbScale
 70
     0
300
10:1
140
10.0
141
1.0
290
     0
  0
SCALE
  5
1E9
102
{ACAD_REACTORS
330
99
102
}
330
99
100
AcDbScale
 70
     0
300
100:1
140
100.0
141
1.0
290
     0
  0
SCALE
  5
1EA
102
{ACAD_REACTORS
330
99
102
}
330
99
100
AcDbScale
 70
     0
300
1/128" = 1'-0"
140
0.0078125
141
12.0
290
     0
  0
SCALE
  5
1EB
102
{ACAD_REACTORS
330
99
102
}
330
99
100
AcDbScale
 70
     0
300
1/64" = 1'-0"
140
0.015625
141
12.0
290
     0
  0
SCALE
  5
1EC
102
{ACAD_REACTORS
330
99
102
}
330
99
100
AcDbScale
 70
     0
300
1/32" = 1'-0"
140
0.03125
141
12.0
290
     0
  0
SCALE
  5
1ED
102
{ACAD_REACTORS
330
99
102
}
330
99
100
AcDbScale
 70
     0
300
1/16" = 1'-0"
140
0.0625
141
12.0
290
     0
  0
SCALE
  5
1EE
102
{ACAD_REACTORS
330
99
102
}
330
99
100
AcDbScale
 70
     0
300
3/32" = 1'-0"
140
0.09375
141
12.0
290
     0
  0
SCALE
  5
1EF
102
{ACAD_REACTORS
330
99
102
}
330
99
100
AcDbScale
 70
     0
300
1/8" = 1'-0"
140
0.125
141
12.0
290
     0
  0
SCALE
  5
1F0
102
{ACAD_REACTORS
330
99
102
}
330
99
100
AcDbScale
 70
     0
300
3/16" = 1'-0"
140
0.1875
141
12.0
290
     0
  0
SCALE
  5
1F1
102
{ACAD_REACTORS
330
99
102
}
330
99
100
AcDbScale
 70
     0
300
1/4" = 1'-0"
140
0.25
141
12.0
290
     0
  0
SCALE
  5
1F2
102
{ACAD_REACTORS
330
99
102
}
330
99
100
AcDbScale
 70
     0
300
3/8" = 1'-0"
140
0.375
141
12.0
290
     0
  0
SCALE
  5
1F3
102
{ACAD_REACTORS
330
99
102
}
330
99
100
AcDbScale
 70
     0
300
1/2" = 1'-0"
140
0.5
141
12.0
290
     0
  0
SCALE
  5
1F4
102
{ACAD_REACTORS
330
99
102
}
330
99
100
AcDbScale
 70
     0
300
3/4" = 1'-0"
140
0.75
141
12.0
290
     0
  0
SCALE
  5
1F5
102
{ACAD_REACTORS
330
99
102
}
330
99
100
AcDbScale
 70
     0
300
1" = 1'-0"
140
1.0
141
12.0
290
     0
  0
SCALE
  5
1F6
102
{ACAD_REACTORS
330
99
102
}
330
99
100
AcDbScale
 70
     0
300
1-1/2" = 1'-0"
140
1.5
141
12.0
290
     0
  0
SCALE
  5
1F7
102
{ACAD_REACTORS
330
99
102
}
330
99
100
AcDbScale
 70
     0
300
3" = 1'-0"
140
3.0
141
12.0
290
     0
  0
SCALE
  5
1F8
102
{ACAD_REACTORS
330
99
102
}
330
99
100
AcDbScale
 70
     0
300
6" = 1'-0"
140
6.0
141
12.0
290
     0
  0
SCALE
  5
1F9
102
{ACAD_REACTORS
330
99
102
}
330
99
100
AcDbScale
 70
     0
300
1'-0" = 1'-0"
140
12.0
141
12.0
290
     0
  0
DICTIONARYVAR
  5
1FB4
102
{ACAD_REACTORS
330
59
102
}
330
59
100
DictionaryVariables
280
     0
  1
1:1
  0
DICTIONARYVAR
  5
1D7
102
{ACAD_REACTORS
330
59
102
}
330
59
100
DictionaryVariables
280
     0
  1
2
  0
DICTIONARYVAR
  5
1D8
102
{ACAD_REACTORS
330
59
102
}
330
59
100
DictionaryVariables
280
     0
  1
1
  0
ENDSEC
  0
EOF
