  0
SECTION
  2
HEADER
  9
$ACADVER
  1
AC1015
  9
$ACADMAINTVER
 70
     6
  9
$DWGCODEPAGE
  3
ANSI_1252
  9
$INSBASE
 10
0.0
 20
0.0
 30
0.0
  9
$EXTMIN
 10
-0.4133592808200313
 20
-0.6917256558621607
 30
0.0
  9
$EXTMAX
 10
0.7240021016510054
 20
1.43091354750004
 30
0.0
  9
$LIMMIN
 10
0.0
 20
0.0
  9
$LIMMAX
 10
12.0
 20
9.0
  9
$ORTHOMODE
 70
     1
  9
$REGENMODE
 70
     1
  9
$FILLMODE
 70
     1
  9
$QTEXTMODE
 70
     0
  9
$MIRRTEXT
 70
     0
  9
$LTSCALE
 40
1.0
  9
$ATTMODE
 70
     1
  9
$TEXTSIZE
 40
0.2
  9
$TRACEWID
 40
0.05
  9
$TEXTSTYLE
  7
Standard
  9
$CLAYER
  8
0
  9
$CELTYPE
  6
ByLayer
  9
$CECOLOR
 62
   256
  9
$CELTSCALE
 40
1.0
  9
$DISPSILH
 70
     0
  9
$DIMSCALE
 40
1.0
  9
$DIMASZ
 40
0.1
  9
$DIMEXO
 40
0.02
  9
$DIMDLI
 40
0.38
  9
$DIMRND
 40
0.0
  9
$DIMDLE
 40
0.0
  9
$DIMEXE
 40
0.018
  9
$DIMTP
 40
0.0
  9
$DIMTM
 40
0.0
  9
$DIMTXT
 40
0.2
  9
$DIMCEN
 40
0.0
  9
$DIMTSZ
 40
0.0
  9
$DIMTOL
 70
     0
  9
$DIMLIM
 70
     0
  9
$DIMTIH
 70
     0
  9
$DIMTOH
 70
     0
  9
$DIMSE1
 70
     0
  9
$DIMSE2
 70
     0
  9
$DIMTAD
 70
     0
  9
$DIMZIN
 70
     0
  9
$DIMBLK
  1
NONE
  9
$DIMASO
 70
     1
  9
$DIMSHO
 70
     1
  9
$DIMPOST
  1

  9
$DIMAPOST
  1

  9
$DIMALT
 70
     0
  9
$DIMALTD
 70
     2
  9
$DIMALTF
 40
25.4
  9
$DIMLFAC
 40
1.0
  9
$DIMTOFL
 70
     0
  9
$DIMTVP
 40
0.0
  9
$DIMTIX
 70
     0
  9
$DIMSOXD
 70
     0
  9
$DIMSAH
 70
     0
  9
$DIMBLK1
  1

  9
$DIMBLK2
  1

  9
$DIMSTYLE
  2
S&C_cotas
  9
$DIMCLRD
 70
   256
  9
$DIMCLRE
 70
   256
  9
$DIMCLRT
 70
   256
  9
$DIMTFAC
 40
1.0
  9
$DIMGAP
 40
0.0
  9
$DIMJUST
 70
     0
  9
$DIMSD1
 70
     1
  9
$DIMSD2
 70
     1
  9
$DIMTOLJ
 70
     1
  9
$DIMTZIN
 70
     0
  9
$DIMALTZ
 70
     0
  9
$DIMALTTZ
 70
     0
  9
$DIMUPT
 70
     0
  9
$DIMDEC
 70
     0
  9
$DIMTDEC
 70
     0
  9
$DIMALTU
 70
     2
  9
$DIMALTTD
 70
     2
  9
$DIMTXSTY
  7
ARIAL
  9
$DIMAUNIT
 70
     0
  9
$DIMADEC
 70
     2
  9
$DIMALTRND
 40
0.0
  9
$DIMAZIN
 70
     0
  9
$DIMDSEP
 70
    46
  9
$DIMATFIT
 70
     3
  9
$DIMFRAC
 70
     0
  9
$DIMLDRBLK
  1
NONE
  9
$DIMLUNIT
 70
     2
  9
$DIMLWD
 70
    -2
  9
$DIMLWE
 70
    -2
  9
$DIMTMOVE
 70
     0
  9
$LUNITS
 70
     2
  9
$LUPREC
 70
     4
  9
$SKETCHINC
 40
0.1
  9
$FILLETRAD
 40
0.0
  9
$AUNITS
 70
     0
  9
$AUPREC
 70
     0
  9
$MENU
  1
.
  9
$ELEVATION
 40
0.0
  9
$PELEVATION
 40
0.0
  9
$THICKNESS
 40
0.0
  9
$LIMCHECK
 70
     0
  9
$CHAMFERA
 40
0.0
  9
$CHAMFERB
 40
0.0
  9
$CHAMFERC
 40
0.0
  9
$CHAMFERD
 40
0.0
  9
$SKPOLY
 70
     0
  9
$TDCREATE
 40
2453353.758792488
  9
$TDUCREATE
 40
2453353.717125822
  9
$TDUPDATE
 40
2456692.657230915
  9
$TDUUPDATE
 40
2456692.615564248
  9
$TDINDWG
 40
0.1097510648
  9
$TDUSRTIMER
 40
2456692.603165232
  9
$USRTIMER
 70
     1
  9
$ANGBASE
 50
0.0
  9
$ANGDIR
 70
     0
  9
$PDMODE
 70
     0
  9
$PDSIZE
 40
0.0
  9
$PLINEWID
 40
0.0
  9
$SPLFRAME
 70
     0
  9
$SPLINETYPE
 70
     6
  9
$SPLINESEGS
 70
     8
  9
$HANDSEED
  5
1054
  9
$SURFTAB1
 70
     6
  9
$SURFTAB2
 70
     6
  9
$SURFTYPE
 70
     6
  9
$SURFU
 70
     6
  9
$SURFV
 70
     6
  9
$UCSBASE
  2

  9
$UCSNAME
  2

  9
$UCSORG
 10
0.0
 20
0.0
 30
0.0
  9
$UCSXDIR
 10
1.0
 20
0.0
 30
0.0
  9
$UCSYDIR
 10
0.0
 20
1.0
 30
0.0
  9
$UCSORTHOREF
  2

  9
$UCSORTHOVIEW
 70
     0
  9
$UCSORGTOP
 10
0.0
 20
0.0
 30
0.0
  9
$UCSORGBOTTOM
 10
0.0
 20
0.0
 30
0.0
  9
$UCSORGLEFT
 10
0.0
 20
0.0
 30
0.0
  9
$UCSORGRIGHT
 10
0.0
 20
0.0
 30
0.0
  9
$UCSORGFRONT
 10
0.0
 20
0.0
 30
0.0
  9
$UCSORGBACK
 10
0.0
 20
0.0
 30
0.0
  9
$PUCSBASE
  2

  9
$PUCSNAME
  2

  9
$PUCSORG
 10
0.0
 20
0.0
 30
0.0
  9
$PUCSXDIR
 10
1.0
 20
0.0
 30
0.0
  9
$PUCSYDIR
 10
0.0
 20
1.0
 30
0.0
  9
$PUCSORTHOREF
  2

  9
$PUCSORTHOVIEW
 70
     0
  9
$PUCSORGTOP
 10
0.0
 20
0.0
 30
0.0
  9
$PUCSORGBOTTOM
 10
0.0
 20
0.0
 30
0.0
  9
$PUCSORGLEFT
 10
0.0
 20
0.0
 30
0.0
  9
$PUCSORGRIGHT
 10
0.0
 20
0.0
 30
0.0
  9
$PUCSORGFRONT
 10
0.0
 20
0.0
 30
0.0
  9
$PUCSORGBACK
 10
0.0
 20
0.0
 30
0.0
  9
$USERI1
 70
     0
  9
$USERI2
 70
     0
  9
$USERI3
 70
     0
  9
$USERI4
 70
     0
  9
$USERI5
 70
     0
  9
$USERR1
 40
0.0
  9
$USERR2
 40
0.0
  9
$USERR3
 40
0.0
  9
$USERR4
 40
0.0
  9
$USERR5
 40
0.0
  9
$WORLDVIEW
 70
     1
  9
$SHADEDGE
 70
     3
  9
$SHADEDIF
 70
    70
  9
$TILEMODE
 70
     1
  9
$MAXACTVP
 70
    64
  9
$PINSBASE
 10
0.0
 20
0.0
 30
0.0
  9
$PLIMCHECK
 70
     0
  9
$PEXTMIN
 10
0.0
 20
0.0
 30
0.0
  9
$PEXTMAX
 10
0.0
 20
0.0
 30
0.0
  9
$PLIMMIN
 10
0.0
 20
0.0
  9
$PLIMMAX
 10
0.0
 20
0.0
  9
$UNITMODE
 70
     0
  9
$VISRETAIN
 70
     1
  9
$PLINEGEN
 70
     0
  9
$PSLTSCALE
 70
     1
  9
$TREEDEPTH
 70
  3020
  9
$CMLSTYLE
  2
Standard
  9
$CMLJUST
 70
     0
  9
$CMLSCALE
 40
1.0
  9
$PROXYGRAPHICS
 70
     1
  9
$MEASUREMENT
 70
     0
  9
$CELWEIGHT
370
    -1
  9
$ENDCAPS
280
     0
  9
$JOINSTYLE
280
     0
  9
$LWDISPLAY
290
     0
  9
$INSUNITS
 70
     1
  9
$HYPERLINKBASE
  1

  9
$STYLESHEET
  1

  9
$XEDIT
290
     0
  9
$CEPSNTYPE
380
     0
  9
$PSTYLEMODE
290
     0
  9
$FINGERPRINTGUID
  2
{8BAE0D3F-6380-4E3D-B0D1-267E31F469C1}
  9
$VERSIONGUID
  2
{6F1AD05E-3764-4268-ADD0-261F181DCA83}
  9
$EXTNAMES
290
     1
  9
$PSVPSCALE
 40
0.0
  9
$OLESTARTUP
290
     0
  0
ENDSEC
  0
SECTION
  2
CLASSES
  0
CLASS
  1
ACDBDICTIONARYWDFLT
  2
AcDbDictionaryWithDefault
  3
ObjectDBX Classes
 90
        0
280
     0
281
     0
  0
CLASS
  1
ACDBPLACEHOLDER
  2
AcDbPlaceHolder
  3
ObjectDBX Classes
 90
        0
280
     0
281
     0
  0
CLASS
  1
LAYOUT
  2
AcDbLayout
  3
ObjectDBX Classes
 90
        0
280
     0
281
     0
  0
CLASS
  1
DICTIONARYVAR
  2
AcDbDictionaryVar
  3
ObjectDBX Classes
 90
        0
280
     0
281
     0
  0
CLASS
  1
TABLESTYLE
  2
AcDbTableStyle
  3
ObjectDBX Classes
 90
     4095
280
     0
281
     0
  0
CLASS
  1
SCALE
  2
AcDbScale
  3
ObjectDBX Classes
 90
     1153
280
     0
281
     0
  0
CLASS
  1
CELLSTYLEMAP
  2
AcDbCellStyleMap
  3
ObjectDBX Classes
 90
     1152
280
     0
281
     0
  0
CLASS
  1
VISUALSTYLE
  2
AcDbVisualStyle
  3
ObjectDBX Classes
 90
     4095
280
     0
281
     0
  0
CLASS
  1
MATERIAL
  2
AcDbMaterial
  3
ObjectDBX Classes
 90
     1153
280
     0
281
     0
  0
CLASS
  1
SUN
  2
AcDbSun
  3
SCENEOE
 90
     1153
280
     0
281
     0
  0
CLASS
  1
RASTERVARIABLES
  2
AcDbRasterVariables
  3
ISM
 90
        0
280
     0
281
     0
  0
CLASS
  1
DIMASSOC
  2
AcDbDimAssoc
  3
"AcDbDimAssoc|Product Desc:     AcDim ARX App For Dimension|Company:          Autodesk, Inc.|WEB Address:      www.autodesk.com"
 90
        0
280
     0
281
     0
  0
ENDSEC
  0
SECTION
  2
TABLES
  0
TABLE
  2
VPORT
  5
8
330
0
100
AcDbSymbolTable
 70
     2
  0
VPORT
  5
97
330
8
100
AcDbSymbolTableRecord
100
AcDbViewportTableRecord
  2
*Active
 70
     0
 10
0.0
 20
0.0
 11
1.0
 21
1.0
 12
1.159261902174189
 22
0.22791805565541
 13
0.0
 23
0.0
 14
0.5
 24
0.5
 15
0.5
 25
0.5
 16
0.0
 26
0.0
 36
1.0
 17
0.0
 27
0.0
 37
0.0
 40
2.894337508769107
 41
2.430473372781065
 42
50.0
 43
0.0
 44
0.0
 50
0.0
 51
0.0
 71
    16
 72
  1000
 73
     1
 74
     1
 75
     0
 76
     0
 77
     0
 78
     0
281
     0
 65
     0
110
0.0
120
0.0
130
0.0
111
1.0
121
0.0
131
0.0
112
0.0
122
1.0
132
0.0
 79
     0
146
0.0
  0
ENDTAB
  0
TABLE
  2
LTYPE
  5
5
330
0
100
AcDbSymbolTable
 70
     2
  0
LTYPE
  5
14
330
5
100
AcDbSymbolTableRecord
100
AcDbLinetypeTableRecord
  2
ByBlock
 70
     0
  3

 72
    65
 73
     0
 40
0.0
  0
LTYPE
  5
15
330
5
100
AcDbSymbolTableRecord
100
AcDbLinetypeTableRecord
  2
ByLayer
 70
     0
  3

 72
    65
 73
     0
 40
0.0
  0
LTYPE
  5
16
330
5
100
AcDbSymbolTableRecord
100
AcDbLinetypeTableRecord
  2
Continuous
 70
     0
  3
Solid line
 72
    65
 73
     0
 40
0.0
  0
LTYPE
  5
ED9
330
5
100
AcDbSymbolTableRecord
100
AcDbLinetypeTableRecord
  2
CENTERX2
 70
     0
  3
Center (2x) ________  __  ________  __  _____
 72
    65
 73
     4
 40
2.032
 49
1.27
 74
     4
 75
     0
340
0
 46
1.0
 50
0.0
 44
0.0
 45
0.0
 49
-0.254
 74
     4
 75
     0
340
0
 46
1.0
 50
0.0
 44
0.0
 45
0.0
 49
0.254
 74
     4
 75
     0
340
0
 46
1.0
 50
0.0
 44
0.0
 45
0.0
 49
-0.254
 74
     4
 75
     0
340
0
 46
1.0
 50
0.0
 44
0.0
 45
0.0
  0
ENDTAB
  0
TABLE
  2
LAYER
  5
2
330
0
100
AcDbSymbolTable
 70
     4
  0
LAYER
  5
10
330
2
100
AcDbSymbolTableRecord
100
AcDbLayerTableRecord
  2
0
 70
     0
 62
     7
  6
Continuous
370
    -3
390
F
  0
LAYER
  5
C1
330
2
100
AcDbSymbolTableRecord
100
AcDbLayerTableRecord
  2
S&C_cotas
 70
     0
 62
   251
  6
Continuous
370
    -3
390
F
  0
LAYER
  5
CC
330
2
100
AcDbSymbolTableRecord
100
AcDbLayerTableRecord
  2
DEFPOINTS
 70
     0
 62
     7
  6
Continuous
290
     0
370
    -3
390
F
  0
LAYER
  5
100
330
2
100
AcDbSymbolTableRecord
100
AcDbLayerTableRecord
  2
S&C_vistas
 70
     0
 62
     1
  6
Continuous
370
    -3
390
F
  0
ENDTAB
  0
TABLE
  2
STYLE
  5
3
330
0
100
AcDbSymbolTable
 70
     3
  0
STYLE
  5
11
330
3
100
AcDbSymbolTableRecord
100
AcDbTextStyleTableRecord
  2
Standard
 70
     0
 40
0.0
 41
1.0
 50
0.0
 71
     0
 42
0.2
  3
txt
  4

  0
STYLE
  5
C2
330
3
100
AcDbSymbolTableRecord
100
AcDbTextStyleTableRecord
  2
ARIAL
 70
     0
 40
0.0
 41
1.0
 50
0.0
 71
     0
 42
15.0
  3
ARIAL.TTF
  4

1001
ACAD
1000
Arial
1071
       34
  0
STYLE
  5
B7F
330
3
100
AcDbSymbolTableRecord
100
AcDbTextStyleTableRecord
  2
SLDTEXTSTYLE0
 70
     0
 40
0.0
 41
0.605
 50
0.0
 71
     0
 42
0.2
  3
TXT
  4

  0
ENDTAB
  0
TABLE
  2
VIEW
  5
6
330
0
100
AcDbSymbolTable
 70
     0
  0
ENDTAB
  0
TABLE
  2
UCS
  5
7
330
0
100
AcDbSymbolTable
 70
     0
  0
ENDTAB
  0
TABLE
  2
APPID
  5
9
330
0
100
AcDbSymbolTable
 70
     3
  0
APPID
  5
12
330
9
100
AcDbSymbolTableRecord
100
AcDbRegAppTableRecord
  2
ACAD
 70
     0
  0
APPID
  5
ED7
330
9
100
AcDbSymbolTableRecord
100
AcDbRegAppTableRecord
  2
ACAD_DSTYLE_DIMJAG
 70
     0
  0
APPID
  5
ED8
330
9
100
AcDbSymbolTableRecord
100
AcDbRegAppTableRecord
  2
ACAD_DSTYLE_DIMTALN
 70
     0
  0
ENDTAB
  0
TABLE
  2
DIMSTYLE
  5
A
330
0
100
AcDbSymbolTable
 70
     3
100
AcDbDimStyleTable
  0
DIMSTYLE
105
27
330
A
100
AcDbSymbolTableRecord
100
AcDbDimStyleTableRecord
  2
Standard
 70
     0
178
     0
340
11
  0
DIMSTYLE
105
C5
330
A
100
AcDbSymbolTableRecord
100
AcDbDimStyleTableRecord
  2
S&C_cotas
 70
     0
 41
0.1
 42
0.02
 44
0.018
 73
     0
 74
     0
140
0.02
141
0.0
147
0.0
176
   256
177
   256
271
     0
178
   256
179
     2
271
     0
272
     0
281
     1
282
     1
340
C2
341
EDA
342
EDA
1001
ACAD_DSTYLE_DIMJAG
1070
   388
1040
1.5
1001
ACAD_DSTYLE_DIMTALN
1070
   392
1070
     0
  0
DIMSTYLE
105
5C6
330
A
100
AcDbSymbolTableRecord
100
AcDbDimStyleTableRecord
  2
Tarifa ACAD
 70
     0
 41
0.5
 42
1.0
 45
0.5
 73
     0
 74
     0
 75
     1
 76
     1
 77
     1
140
1.5
141
1.0
147
1.0
172
     1
178
     0
271
     0
272
     0
340
11
341
EDD
342
EDD
  0
ENDTAB
  0
TABLE
  2
BLOCK_RECORD
  5
1
330
0
100
AcDbSymbolTable
 70
    13
  0
BLOCK_RECORD
  5
1F
330
1
100
AcDbSymbolTableRecord
100
AcDbBlockTableRecord
  2
*Model_Space
340
22
  0
BLOCK_RECORD
  5
73
330
1
100
AcDbSymbolTableRecord
100
AcDbBlockTableRecord
  2
*Paper_Space
340
74
  0
BLOCK_RECORD
  5
EDA
330
1
100
AcDbSymbolTableRecord
100
AcDbBlockTableRecord
  2
_NONE
340
0
  0
BLOCK_RECORD
  5
EDD
330
1
100
AcDbSymbolTableRecord
100
AcDbBlockTableRecord
  2
_DOT
340
0
  0
BLOCK_RECORD
  5
BE
330
1
100
AcDbSymbolTableRecord
100
AcDbBlockTableRecord
  2
*Paper_Space2
340
BF
  0
BLOCK_RECORD
  5
ECD
330
1
100
AcDbSymbolTableRecord
100
AcDbBlockTableRecord
  2
*D5
340
0
  0
BLOCK_RECORD
  5
ED5
330
1
100
AcDbSymbolTableRecord
100
AcDbBlockTableRecord
  2
*D6
340
0
  0
BLOCK_RECORD
  5
F1C
330
1
100
AcDbSymbolTableRecord
100
AcDbBlockTableRecord
  2
*D7
340
0
  0
BLOCK_RECORD
  5
F28
330
1
100
AcDbSymbolTableRecord
100
AcDbBlockTableRecord
  2
*D8
340
0
  0
ENDTAB
  0
ENDSEC
  0
SECTION
  2
BLOCKS
  0
BLOCK
  5
20
330
1F
100
AcDbEntity
  8
0
100
AcDbBlockBegin
  2
*Model_Space
 70
     0
 10
0.0
 20
0.0
 30
0.0
  3
*Model_Space
  1
*Model_Space
  0
ENDBLK
  5
21
330
1F
100
AcDbEntity
  8
0
100
AcDbBlockEnd
  0
BLOCK
  5
75
330
73
100
AcDbEntity
 67
     1
  8
0
100
AcDbBlockBegin
  2
*Paper_Space
 70
     0
 10
0.0
 20
0.0
 30
0.0
  3
*Paper_Space
  1
*Paper_Space
  0
ENDBLK
  5
76
330
73
100
AcDbEntity
 67
     1
  8
0
100
AcDbBlockEnd
  0
BLOCK
  5
EDB
330
EDA
100
AcDbEntity
  8
0
100
AcDbBlockBegin
  2
_NONE
 70
     0
 10
0.0
 20
0.0
 30
0.0
  3
_NONE
  1
_NONE
  0
ENDBLK
  5
EDC
330
EDA
100
AcDbEntity
  8
0
100
AcDbBlockEnd
  0
BLOCK
  5
EDE
330
EDD
100
AcDbEntity
  8
0
100
AcDbBlockBegin
  2
_DOT
 70
     0
 10
0.0
 20
0.0
 30
0.0
  3
_DOT
  1
_DOT
  0
LWPOLYLINE
  5
D05
330
EDD
100
AcDbEntity
  8
0
  6
ByBlock
 62
     0
100
AcDbPolyline
 90
        2
 70
     1
 43
0.5
 10
-0.25
 20
0.0
 42
1.0
 10
0.25
 20
0.0
 42
1.0
  0
LINE
  5
D06
330
EDD
100
AcDbEntity
  8
0
  6
ByBlock
 62
     0
370
    -2
100
AcDbLine
 10
-0.5
 20
0.0
 30
0.0
 11
-1.0
 21
0.0
 31
0.0
  0
ENDBLK
  5
EDF
330
EDD
100
AcDbEntity
  8
0
100
AcDbBlockEnd
  0
BLOCK
  5
EE5
330
BE
100
AcDbEntity
  8
0
100
AcDbBlockBegin
  2
*Paper_Space2
 70
     0
 10
0.0
 20
0.0
 30
0.0
  3
*Paper_Space2
  1
*Paper_Space2
  0
ENDBLK
  5
EE6
330
BE
100
AcDbEntity
  8
0
100
AcDbBlockEnd
  0
BLOCK
  5
EEB
330
ECD
100
AcDbEntity
  8
0
100
AcDbBlockBegin
  2
*D5
 70
     1
 10
0.0
 20
0.0
 30
0.0
  3
*D5
  1
*D5
  0
POINT
  5
EC7
330
ECD
100
AcDbEntity
  8
DEFPOINTS
  6
ByBlock
100
AcDbPoint
 10
0.0471288974999879
 20
1.43091354750004
 30
0.0
  0
POINT
  5
EC8
330
ECD
100
AcDbEntity
  8
DEFPOINTS
  6
ByBlock
100
AcDbPoint
 10
0.0
 20
-0.0010899374999553
 30
0.0
  0
LINE
  5
EC9
330
ECD
100
AcDbEntity
  8
0
  6
ByBlock
370
    -2
100
AcDbLine
 10
0.0271288974999879
 20
1.43091354750004
 30
0.0
 11
-0.4133592808200313
 21
1.43091354750004
 31
0.0
  0
LINE
  5
ECA
330
ECD
100
AcDbEntity
  8
0
  6
ByBlock
370
    -2
100
AcDbLine
 10
-0.02
 20
-0.0010899374999553
 30
0.0
 11
-0.4133592808200313
 21
-0.0010899374999553
 31
0.0
  0
MTEXT
  5
ECB
330
ECD
100
AcDbEntity
  8
0
  6
ByBlock
100
AcDbMText
 10
-0.3953592808200312
 20
0.7149118050000425
 30
0.0
 40
0.02
 41
0.0
 71
     5
 72
     1
  1
143 cm / 56.3"
  7
ARIAL
 11
6.123031769111886E-17
 21
1.0
 31
0.0
 73
     1
 44
1.0
  0
ENDBLK
  5
EEC
330
ECD
100
AcDbEntity
  8
0
100
AcDbBlockEnd
  0
BLOCK
  5
EED
330
ED5
100
AcDbEntity
  8
0
100
AcDbBlockBegin
  2
*D6
 70
     1
 10
0.0
 20
0.0
 30
0.0
  3
*D6
  1
*D6
  0
POINT
  5
ECF
330
ED5
100
AcDbEntity
  8
DEFPOINTS
  6
ByBlock
100
AcDbPoint
 10
0.5033987516510292
 20
-0.580099484062695
 30
0.0
  0
POINT
  5
ED0
330
ED5
100
AcDbEntity
  8
DEFPOINTS
  6
ByBlock
100
AcDbPoint
 10
0.7222403579526449
 20
-0.571025318206748
 30
0.0
  0
LINE
  5
ED1
330
ED5
100
AcDbEntity
  8
0
  6
ByBlock
370
    -2
100
AcDbLine
 10
0.5033987516510292
 20
-0.600099484062695
 30
0.0
 11
0.5033987516510292
 21
-0.6917256558621607
 31
0.0
  0
LINE
  5
ED2
330
ED5
100
AcDbEntity
  8
0
  6
ByBlock
370
    -2
100
AcDbLine
 10
0.7222403579526449
 20
-0.591025318206748
 30
0.0
 11
0.7222403579526449
 21
-0.6917256558621607
 31
0.0
  0
MTEXT
  5
ED3
330
ED5
100
AcDbEntity
  8
0
  6
ByBlock
100
AcDbMText
 10
0.612819554801837
 20
-0.6737256558621607
 30
0.0
 40
0.02
 41
0.0
 71
     5
 72
     1
  1
%%c22 cm / 8.7"
  7
ARIAL
 73
     1
 44
1.0
  0
ENDBLK
  5
EEE
330
ED5
100
AcDbEntity
  8
0
100
AcDbBlockEnd
  0
BLOCK
  5
F1D
330
F1C
100
AcDbEntity
  8
0
100
AcDbBlockBegin
  2
*D7
 70
     1
 10
0.0
 20
0.0
 30
0.0
  3
*D7
  1
*D7
  0
LINE
  5
F1F
330
F1C
100
AcDbEntity
  8
0
370
    -2
100
AcDbLine
 10
0.0
 20
-0.02
 30
0.0
 11
0.0
 21
-0.138023470518985
 31
0.0
  0
LINE
  5
F20
330
F1C
100
AcDbEntity
  8
0
370
    -2
100
AcDbLine
 10
0.1103016749999881
 20
-0.02
 30
0.0
 11
0.1103016749999881
 21
-0.138023470518985
 31
0.0
  0
MTEXT
  5
F21
330
F1C
100
AcDbEntity
  8
0
100
AcDbMText
 10
-0.3401999999999999
 20
-0.120023470518985
 30
0.0
 40
0.2
 41
0.0
 71
     5
 72
     1
  1
\A1;0.11
  7
ARIAL
 73
     1
 44
1.0
  0
POINT
  5
F22
330
F1C
100
AcDbEntity
  8
DEFPOINTS
 62
     0
100
AcDbPoint
 10
0.0
 20
0.0
 30
0.0
  0
POINT
  5
F23
330
F1C
100
AcDbEntity
  8
DEFPOINTS
 62
     0
100
AcDbPoint
 10
0.1103016749999881
 20
0.0
 30
0.0
  0
POINT
  5
F24
330
F1C
100
AcDbEntity
  8
DEFPOINTS
 62
     0
100
AcDbPoint
 10
0.1103016749999881
 20
-0.120023470518985
 30
0.0
  0
ENDBLK
  5
F1E
330
F1C
100
AcDbEntity
  8
0
100
AcDbBlockEnd
  0
BLOCK
  5
F29
330
F28
100
AcDbEntity
  8
0
100
AcDbBlockBegin
  2
*D8
 70
     1
 10
0.0
 20
0.0
 30
0.0
  3
*D8
  1
*D8
  0
LINE
  5
F2B
330
F28
100
AcDbEntity
  8
0
370
    -2
100
AcDbLine
 10
-0.0551508374999941
 20
-0.02
 30
0.0
 11
-0.0551508374999941
 21
-0.132753647116699
 31
0.0
  0
LINE
  5
F2C
330
F28
100
AcDbEntity
  8
0
370
    -2
100
AcDbLine
 10
0.0
 20
-0.02
 30
0.0
 11
0.0
 21
-0.132753647116699
 31
0.0
  0
MTEXT
  5
F2D
330
F28
100
AcDbEntity
  8
0
100
AcDbMText
 10
-0.414650837499994
 20
-0.114753647116699
 30
0.0
 40
0.2
 41
0.0
 71
     5
 72
     1
  1
\A1;0.06
  7
ARIAL
 73
     1
 44
1.0
  0
POINT
  5
F2E
330
F28
100
AcDbEntity
  8
DEFPOINTS
 62
     0
100
AcDbPoint
 10
-0.0551508374999941
 20
0.0
 30
0.0
  0
POINT
  5
F2F
330
F28
100
AcDbEntity
  8
DEFPOINTS
 62
     0
100
AcDbPoint
 10
0.0
 20
0.0
 30
0.0
  0
POINT
  5
F30
330
F28
100
AcDbEntity
  8
DEFPOINTS
 62
     0
100
AcDbPoint
 10
0.0
 20
-0.114753647116699
 30
0.0
  0
ENDBLK
  5
F2A
330
F28
100
AcDbEntity
  8
0
100
AcDbBlockEnd
  0
ENDSEC
  0
SECTION
  2
ENTITIES
  0
ARC
  5
C30
330
1F
100
AcDbEntity
  8
S&C_vistas
  6
Continuous
 62
   255
100
AcDbCircle
 10
0.0495472394544265
 20
1.310841272784501
 30
0.0
 40
0.0987588050365032
100
AcDbArc
 50
81.39856163922228
 51
86.86398438851367
  0
LWPOLYLINE
  5
C31
330
1F
100
AcDbEntity
  8
S&C_vistas
  6
Continuous
 62
   255
100
AcDbPolyline
 90
       24
 70
   128
 43
0.0
 10
0.0471288974999879
 20
1.410753203679405
 10
0.0461438028252701
 20
1.410622301752142
 10
0.0446068260133075
 20
1.410329263337417
 10
0.0435131226651322
 20
1.409895265805858
 10
0.0428827458647731
 20
1.409375936297806
 10
0.0423732191003978
 20
1.408501038467989
 10
0.0422554020001655
 20
1.407480092545939
 10
0.0425179609921997
 20
1.406580227770178
 10
0.0429591072802396
 20
1.405966213480497
 10
0.0434229828062769
 20
1.405585910712489
 10
0.0439156411603676
 20
1.405327441244822
 10
0.0445133572489738
 20
1.405125827207371
 10
0.0462510369872575
 20
1.404790566163001
 10
0.0474801665622806
 20
1.404630918310659
 10
0.0489929540584342
 20
1.404466494324993
 10
0.050670177556924
 20
1.404305634585512
 10
0.0523772755848597
 20
1.404154451990166
 10
0.0556364329949872
 20
1.403879661587553
 10
0.0584817359233796
 20
1.403635945021733
 10
0.0610780057100726
 20
1.403389810466706
 10
0.0622191941344852
 20
1.403265256705708
 10
0.063185312406091
 20
1.403146462377094
 10
0.0638383444630506
 20
1.403072343275198
 10
0.0639713729913183
 20
1.403126038843197
  0
LWPOLYLINE
  5
C32
330
1F
100
AcDbEntity
  8
S&C_vistas
  6
Continuous
 62
   255
100
AcDbPolyline
 90
       25
 70
   128
 43
0.0
 10
0.0453349337379336
 20
1.404967315494559
 10
0.0440661955804273
 20
1.404643997908693
 10
0.0436038116324937
 20
1.404434715519301
 10
0.0431904221145771
 20
1.404157337796278
 10
0.0429513424971617
 20
1.403937503031102
 10
0.0426738255048065
 20
1.403594012558074
 10
0.0424099179962241
 20
1.403086164252272
 10
0.042254565463935
 20
1.402403729567482
 10
0.0422960178246683
 20
1.401704772378366
 10
0.0425057976097776
 20
1.401095412408267
 10
0.043167695106888
 20
1.400263936973602
 10
0.0438242478132906
 20
1.399854524407715
 10
0.0443898718725677
 20
1.399644824402003
 10
0.0457167904040432
 20
1.399357717444786
 10
0.0476955428219412
 20
1.39909040742657
 10
0.0503200330356322
 20
1.398822837087891
 10
0.0531445492203773
 20
1.398573686402983
 10
0.0560156809219166
 20
1.398332791805728
 10
0.0590484740819761
 20
1.39806998682127
 10
0.0605295190354411
 20
1.397930081453978
 10
0.0618975914970576
 20
1.397786665743183
 10
0.0629674836973209
 20
1.397657304432641
 10
0.0637167581680842
 20
1.397550319321795
 10
0.0643933820754796
 20
1.397432647488927
 10
0.0643950051735374
 20
1.397437333495759
  0
LWPOLYLINE
  5
C33
330
1F
100
AcDbEntity
  8
S&C_vistas
  6
Continuous
 62
   255
100
AcDbPolyline
 90
       26
 70
   128
 43
0.0
 10
0.0453473633892258
 20
1.399437650811933
 10
0.0448191763726129
 20
1.399347066337327
 10
0.043897537420321
 20
1.399047543645565
 10
0.043039827326993
 20
1.398502279106197
 10
0.0426898439405647
 20
1.398100528724513
 10
0.0424178648163434
 20
1.397593492421151
 10
0.0422658560123068
 20
1.397006177291587
 10
0.0422533988059115
 20
1.396474521555547
 10
0.0424309586890672
 20
1.395739227701597
 10
0.0425347962907097
 20
1.395517799138474
 10
0.042663896878139
 20
1.395302321688064
 10
0.043038224209738
 20
1.394873146946793
 10
0.0436282938942725
 20
1.394472670826872
 10
0.0444771070681327
 20
1.394136627204716
 10
0.0454126233851184
 20
1.393908223624294
 10
0.047402266252476
 20
1.393610465594179
 10
0.0496220574186452
 20
1.393373940612605
 10
0.052198979700421
 20
1.393139643315635
 10
0.0551328280425594
 20
1.392891652909157
 10
0.0584383440999261
 20
1.392609695420219
 10
0.0601034738719193
 20
1.392456609048281
 10
0.0616627340396576
 20
1.392297454023605
 10
0.062896449681233
 20
1.392151640162638
 10
0.063751433008747
 20
1.392030561034403
 10
0.0642485618051296
 20
1.391945124812992
 10
0.0644082703765889
 20
1.391919161280384
  0
LWPOLYLINE
  5
C34
330
1F
100
AcDbEntity
  8
S&C_vistas
  6
Continuous
 62
   255
100
AcDbPolyline
 90
       23
 70
   128
 43
0.0
 10
0.0453105121770818
 20
1.39393315377788
 10
0.0451777715094295
 20
1.393912010417239
 10
0.0440514897544517
 20
1.393609066658883
 10
0.0434513285203764
 20
1.393311729037009
 10
0.0427702422875313
 20
1.392695413799061
 10
0.0424673512120535
 20
1.392193354448636
 10
0.0422782983194168
 20
1.391568808425973
 10
0.0422650535908247
 20
1.390862741139017
 10
0.0424481189032235
 20
1.390188764094091
 10
0.0427500001188434
 20
1.389669777044901
 10
0.0430956375015796
 20
1.389296565519089
 10
0.043792863248882
 20
1.388844374540099
 10
0.0452781096202841
 20
1.388405537421818
 10
0.0471633438438062
 20
1.388123605807664
 10
0.049475338853739
 20
1.387873102664685
 10
0.0521477425206456
 20
1.387628986266463
 10
0.0553088749614403
 20
1.3873618518802
 10
0.058708379795462
 20
1.387070482405193
 10
0.0616196007815972
 20
1.386787226063916
 10
0.0635352119656432
 20
1.386547936010402
 10
0.064115591567969
 20
1.386451794464392
 10
0.0643645496769523
 20
1.386409248812811
 10
0.0643472248671344
 20
1.38642276141195
  0
LWPOLYLINE
  5
C35
330
1F
100
AcDbEntity
  8
S&C_vistas
  6
Continuous
 62
   255
100
AcDbPolyline
 90
       24
 70
   128
 43
0.0
 10
0.0452906496414016
 20
1.388403662096039
 10
0.0448405429431773
 20
1.388326036447666
 10
0.043710727286026
 20
1.387943694289447
 10
0.0430463819946567
 20
1.387482527967222
 10
0.0424261410765325
 20
1.386582841803715
 10
0.0422717030485842
 20
1.3860166526066
 10
0.0422544490374719
 20
1.385435047846727
 10
0.0425393529669122
 20
1.384479749149364
 10
0.04295377528274
 20
1.383911315733258
 10
0.0432902482012594
 20
1.383617155701813
 10
0.0436099984163434
 20
1.383413886981316
 10
0.0440070982149905
 20
1.383230947187485
 10
0.0452370101156419
 20
1.382899490553996
 10
0.0472798381163386
 20
1.382594470167419
 10
0.0487164847907309
 20
1.382434447976493
 10
0.050389532696272
 20
1.382271126245769
 10
0.0521110411993106
 20
1.382117135122257
 10
0.0538080850185167
 20
1.381972457120582
 10
0.0569333512760011
 20
1.381709923199651
 10
0.0596531025444165
 20
1.381469010727869
 10
0.0620723604550903
 20
1.381221753581599
 10
0.0630648304787087
 20
1.381100552929752
 10
0.0637732897462797
 20
1.381010069974309
 10
0.0640461840003184
 20
1.381028503785501
  0
LWPOLYLINE
  5
C36
330
1F
100
AcDbEntity
  8
S&C_vistas
  6
Continuous
 62
   255
100
AcDbPolyline
 90
       25
 70
   128
 43
0.0
 10
0.0452528237825049
 20
1.382897129370917
 10
0.0452155461772747
 20
1.382891141983123
 10
0.0444846312259983
 20
1.382722264730319
 10
0.0440062291430365
 20
1.382563427763444
 10
0.0434232025408221
 20
1.38226698282881
 10
0.0431669764792844
 20
1.382078306583708
 10
0.042831606880668
 20
1.38174415746073
 10
0.0424374895327446
 20
1.381095775401036
 10
0.0422473800037153
 20
1.38005073686918
 10
0.0423375991179853
 20
1.379471164359188
 10
0.0425608039747942
 20
1.378930309879138
 10
0.0432328537723379
 20
1.378151098614012
 10
0.0438802522559456
 20
1.377768917665776
 10
0.0444393703330945
 20
1.377569966583678
 10
0.0458093981648631
 20
1.377282246949221
 10
0.0479070141440729
 20
1.37700615134213
 10
0.0506695717018601
 20
1.376730263116769
 10
0.0535637586770576
 20
1.376477894194295
 10
0.0564328129477758
 20
1.376237325339957
 10
0.0593856891488826
 20
1.375978767904257
 10
0.0608000921540395
 20
1.375842702542172
 10
0.0620863636488025
 20
1.375704876481791
 10
0.0637802569689541
 20
1.375479868881143
 10
0.0643998706895559
 20
1.375371859602978
 10
0.0643953990601176
 20
1.375377067367481
  0
LWPOLYLINE
  5
C37
330
1F
100
AcDbEntity
  8
S&C_vistas
  6
Continuous
 62
   255
100
AcDbPolyline
 90
       26
 70
   128
 43
0.0
 10
0.0453643220358515
 20
1.377375717416157
 10
0.0446206004775149
 20
1.377237702877665
 10
0.0437592846849952
 20
1.376926573077071
 10
0.0429596840882311
 20
1.376365019814557
 10
0.0426295559209109
 20
1.375949270960405
 10
0.0423784838719428
 20
1.375425061978035
 10
0.0422539659371637
 20
1.374832264507631
 10
0.0422671006164137
 20
1.374292359085757
 10
0.042513852571318
 20
1.373498725798413
 10
0.0426727346119549
 20
1.373228562664394
 10
0.0428597285362287
 20
1.372986360573805
 10
0.0433260266131867
 20
1.372575586892594
 10
0.0439554584272912
 20
1.37224640897557
 10
0.0457079691231286
 20
1.371791842290691
 10
0.0477196444788603
 20
1.371513017498387
 10
0.0500472706031871
 20
1.371272934301373
 10
0.0528583329500805
 20
1.371022656909645
 10
0.0561513452153122
 20
1.370745936723438
 10
0.0579674553177938
 20
1.370590739258773
 10
0.0598026469214119
 20
1.37042492808348
 10
0.0615388503178167
 20
1.370250658337227
 10
0.0628697380300878
 20
1.370094727349397
 10
0.0637438929691712
 20
1.369970859971659
 10
0.0642302926287925
 20
1.369886537220395
 10
0.0644082600583999
 20
1.369855060052487
 10
0.0644002100016792
 20
1.369860291494319
  0
LWPOLYLINE
  5
C38
330
1F
100
AcDbEntity
  8
S&C_vistas
  6
Continuous
 62
   255
100
AcDbPolyline
 90
       24
 70
   128
 43
0.0
 10
0.0454045361996691
 20
1.371870546802143
 10
0.0445258916851117
 20
1.371698461219921
 10
0.0438519560809709
 20
1.371464794134567
 10
0.0432078591595086
 20
1.371079300051292
 10
0.0428865071793609
 20
1.370776389477555
 10
0.0425900177870915
 20
1.370370490061987
 10
0.042365397532933
 20
1.369870513854835
 10
0.0422525606279009
 20
1.369295117257366
 10
0.0422826475949876
 20
1.368682638001474
 10
0.0424603097168585
 20
1.368099702547624
 10
0.0427368926913232
 20
1.367626617161591
 10
0.0430658068058278
 20
1.367263896010854
 10
0.043793810567422
 20
1.366786475575054
 10
0.0445580873724509
 20
1.366510678380109
 10
0.0462706591784752
 20
1.36618206247374
 10
0.048420375950144
 20
1.365920011263484
 10
0.0509151815478504
 20
1.365677733948246
 10
0.0538448645770586
 20
1.365424060205783
 10
0.057154997650116
 20
1.365145834738541
 10
0.0604121956002643
 20
1.364851047745447
 10
0.0628067911680432
 20
1.364587953067144
 10
0.0641699186462006
 20
1.364381282878298
 10
0.0643975688326748
 20
1.364340357614424
 10
0.0643837375256453
 20
1.364349931617767
  0
LWPOLYLINE
  5
C39
330
1F
100
AcDbEntity
  8
S&C_vistas
  6
Continuous
 62
   255
100
AcDbPolyline
 90
       23
 70
   128
 43
0.0
 10
0.0453532604324209
 20
1.36635809703148
 10
0.0443217601211643
 20
1.366127263926046
 10
0.0437605193149011
 20
1.365907966120744
 10
0.0431008387283782
 20
1.36547153254628
 10
0.0424619079757349
 20
1.36460555091162
 10
0.0422869951864868
 20
1.364045497523648
 10
0.0422486475373205
 20
1.363463063275731
 10
0.0425095263771311
 20
1.362477792357822
 10
0.0429241807866276
 20
1.361882468172894
 10
0.0432688414357187
 20
1.361572828006274
 10
0.0435876680536751
 20
1.361365968163682
 10
0.0445384078295206
 20
1.360999722454039
 10
0.0462073636060154
 20
1.360676440634506
 10
0.0488370122695017
 20
1.360361672503132
 10
0.050524926645096
 20
1.360198258215519
 10
0.0522612009235104
 20
1.36004377419863
 10
0.0555971348510695
 20
1.359762297692669
 10
0.0584852971559258
 20
1.359514935932566
 10
0.0610565146741351
 20
1.359271300726846
 10
0.0621896212237232
 20
1.359147838542071
 10
0.0631614097249837
 20
1.359026897570629
 10
0.0638504951408265
 20
1.358937250441727
 10
0.0640488301065147
 20
1.358967410154946
  0
LWPOLYLINE
  5
C3A
330
1F
100
AcDbEntity
  8
S&C_vistas
  6
Continuous
 62
   255
100
AcDbPolyline
 90
       23
 70
   128
 43
0.0
 10
0.0453244612321555
 20
1.360847461514709
 10
0.0446305571321659
 20
1.360700865859144
 10
0.0441111585074054
 20
1.36054261345987
 10
0.0435039562297277
 20
1.360257405258039
 10
0.043242885744661
 20
1.360078991851083
 10
0.0429462705609467
 20
1.359812498257725
 10
0.0425522236848224
 20
1.359275007104429
 10
0.0422597146016699
 20
1.358344586004137
 10
0.0422655756501342
 20
1.357763715512192
 10
0.0424089189755819
 20
1.357194228099388
 10
0.0430191438265126
 20
1.356275888664754
 10
0.0436913845512663
 20
1.355798699541197
 10
0.0445462272082011
 20
1.355479821147583
 10
0.045569969689069
 20
1.35526193369617
 10
0.0476092790138694
 20
1.35497978763749
 10
0.050434937499233
 20
1.354691523815404
 10
0.0534046784198665
 20
1.354430993373626
 10
0.0562646285407027
 20
1.35419117103379
 10
0.0591478772371659
 20
1.35394026308586
 10
0.0618074473500485
 20
1.35367598047867
 10
0.0636103235253245
 20
1.353445928445353
 10
0.0643633955491225
 20
1.353317249716611
 10
0.06435926714164
 20
1.353330936770021
  0
LWPOLYLINE
  5
C3B
330
1F
100
AcDbEntity
  8
S&C_vistas
  6
Continuous
 62
   255
100
AcDbPolyline
 90
       25
 70
   128
 43
0.0
 10
0.0453245288084076
 20
1.35531417191919
 10
0.0447607118013025
 20
1.35521477982968
 10
0.0439528680930437
 20
1.354956059404799
 10
0.0431697226879919
 20
1.354497123391639
 10
0.0428188681532049
 20
1.35414939912539
 10
0.0425199894126251
 20
1.353696893048209
 10
0.0423122637731979
 20
1.353133958641592
 10
0.0422455087944229
 20
1.352541639380547
 10
0.0424573746527983
 20
1.351558851424556
 10
0.0428685322161755
 20
1.350915747634531
 10
0.0433725080158354
 20
1.350477318416779
 10
0.0439739982451499
 20
1.350168153799814
 10
0.0456219459550482
 20
1.349745664357215
 10
0.0476197338847157
 20
1.349464389807395
 10
0.04991588877715
 20
1.34922509887781
 10
0.0526856795589765
 20
1.34897706124616
 10
0.0558863630945439
 20
1.348707878762639
 10
0.0576441384611712
 20
1.348558469412524
 10
0.0594289225978741
 20
1.348399445600194
 10
0.0611506720262014
 20
1.34823144664449
 10
0.0625768143327434
 20
1.348071171115862
 10
0.0635554106418112
 20
1.347939484454059
 10
0.064138265978869
 20
1.347843563274751
 10
0.0643962905616604
 20
1.347794600845873
 10
0.0643778981455227
 20
1.347809811485035
  0
LWPOLYLINE
  5
C3C
330
1F
100
AcDbEntity
  8
S&C_vistas
  6
Continuous
 62
   255
100
AcDbPolyline
 90
       22
 70
   128
 43
0.0
 10
0.0453590237756032
 20
1.349813070528171
 10
0.0445665052843083
 20
1.349645046218598
 10
0.0435844761820476
 20
1.349267356149767
 10
0.0429864643065798
 20
1.348822280177387
 10
0.0427222579187116
 20
1.348513632639424
 10
0.0424916027124311
 20
1.348127214999863
 10
0.0422456357140106
 20
1.347093807994725
 10
0.0423084796231308
 20
1.346492869226722
 10
0.0425127484368772
 20
1.345928424102567
 10
0.0428077447422197
 20
1.345475712881353
 10
0.0433404149757735
 20
1.344987513316028
 10
0.0439343522500621
 20
1.344666646692417
 10
0.0456219342399038
 20
1.344223254795907
 10
0.0476246723827671
 20
1.343947924472104
 10
0.0500249420532839
 20
1.343699637704049
 10
0.0527577945292137
 20
1.343455808862814
 10
0.0559357157872
 20
1.343188667351001
 10
0.0592851528225822
 20
1.342897520340557
 10
0.062066529418928
 20
1.342616789574549
 10
0.0638027318867387
 20
1.342385959310946
 10
0.0642803815206889
 20
1.342299595178133
 10
0.0644062926604931
 20
1.342280078872136
  0
LWPOLYLINE
  5
C3D
330
1F
100
AcDbEntity
  8
S&C_vistas
  6
Continuous
 62
   255
100
AcDbPolyline
 90
       25
 70
   128
 43
0.0
 10
0.0453520649465418
 20
1.344294159711012
 10
0.0448404235997657
 20
1.34420503192689
 10
0.0436976448183088
 20
1.343816031277356
 10
0.0430279741284778
 20
1.343343882283762
 10
0.0424144219810785
 20
1.342430992286722
 10
0.0422676789852119
 20
1.341862341124738
 10
0.0422584118377074
 20
1.341281007834255
 10
0.0425523149710898
 20
1.340336592996891
 10
0.042967012029095
 20
1.339777649966436
 10
0.0433012167358697
 20
1.33948866778303
 10
0.0436311795280346
 20
1.339282086873141
 10
0.0440610502333527
 20
1.339090904596674
 10
0.0446634880130716
 20
1.33890752287823
 10
0.0454697246912019
 20
1.338736383614446
 10
0.0477350287716831
 20
1.338420284924609
 10
0.0492567628734548
 20
1.338258975763893
 10
0.0509794588020327
 20
1.338096467860964
 10
0.0527293442276573
 20
1.337943177776197
 10
0.0544368649269984
 20
1.337799038464482
 10
0.0575389976793588
 20
1.337537355455652
 10
0.0601933175784097
 20
1.337296971482829
 10
0.062491950815911
 20
1.337051608893375
 10
0.0633979973289343
 20
1.336933656102588
 10
0.0639811707564206
 20
1.336857721876413
 10
0.0640586998875108
 20
1.336902234379522
  0
LWPOLYLINE
  5
C3E
330
1F
100
AcDbEntity
  8
S&C_vistas
  6
Continuous
 62
   255
100
AcDbPolyline
 90
       24
 70
   128
 43
0.0
 10
0.0452762942240952
 20
1.338777442956825
 10
0.044941942382394
 20
1.338714007240128
 10
0.0444509344077062
 20
1.338591651811953
 10
0.0437585071713329
 20
1.338334541919153
 10
0.0432153509364923
 20
1.337997290791009
 10
0.0429064981362046
 20
1.337709968552304
 10
0.0425104293927347
 20
1.337135788567139
 10
0.0422492518098636
 20
1.336162750778726
 10
0.0422841486922891
 20
1.335580423150645
 10
0.0424557365426779
 20
1.335019318931359
 10
0.0430921724063182
 20
1.334147496641663
 10
0.0437558405539562
 20
1.333705917321254
 10
0.0449187906183397
 20
1.33332848306236
 10
0.0466268956484726
 20
1.333041764312156
 10
0.0478335192318013
 20
1.332893843440615
 10
0.0492801038932384
 20
1.332741533132207
 10
0.0523406111386464
 20
1.332461490912806
 10
0.0552771971345294
 20
1.332213647680419
 10
0.058113596637213
 20
1.331972384934147
 10
0.0608126260756308
 20
1.331720703051246
 10
0.0629827535537117
 20
1.331474191983148
 10
0.064144031012404
 20
1.331297357206608
 10
0.0643777923366997
 20
1.331254394426992
 10
0.064361222373833
 20
1.331270879752651
  0
LWPOLYLINE
  5
C3F
330
1F
100
AcDbEntity
  8
S&C_vistas
  6
Continuous
 62
   255
100
AcDbPolyline
 90
       24
 70
   128
 43
0.0
 10
0.0452963092736809
 20
1.333265113611901
 10
0.0438053139826593
 20
1.33283284671063
 10
0.0430774249269632
 20
1.332358721785226
 10
0.0427460293653894
 20
1.331997051110193
 10
0.042466630622215
 20
1.331525462259606
 10
0.0422857465295579
 20
1.330945197888582
 10
0.0422505238633164
 20
1.33034857439668
 10
0.0425334253651499
 20
1.329342888664655
 10
0.0430415071432151
 20
1.328677881511908
 10
0.0436179358310369
 20
1.328266842780408
 10
0.0444965025014596
 20
1.327927832592536
 10
0.0456126237710066
 20
1.327685630854148
 10
0.0469050537803071
 20
1.327492092668422
 10
0.0490755700313343
 20
1.327247117879665
 10
0.0516706134878575
 20
1.327004699894133
 10
0.0546805472083349
 20
1.32674847794749
 10
0.0580638057004421
 20
1.326461612868115
 10
0.0597896173410106
 20
1.326305420764925
 10
0.0614303046436646
 20
1.326141620317117
 10
0.0627525501118953
 20
1.325988862204554
 10
0.0636542134070055
 20
1.325864030043476
 10
0.0641842441306721
 20
1.325774668162808
 10
0.0644065847818922
 20
1.325732943606681
 10
0.064402683188888
 20
1.325738216007835
  0
LWPOLYLINE
  5
C40
330
1F
100
AcDbEntity
  8
S&C_vistas
  6
Continuous
 62
   255
100
AcDbPolyline
 90
       24
 70
   128
 43
0.0
 10
0.0453422472834575
 20
1.32774430338111
 10
0.0446959281399586
 20
1.327614046064582
 10
0.0435659232647367
 20
1.327187659511424
 10
0.042961728523494
 20
1.326735851401622
 10
0.0427338623419189
 20
1.32646982069366
 10
0.0425468616224691
 20
1.326176017806915
 10
0.0422706596240232
 20
1.325345890382891
 10
0.0422523487940225
 20
1.324796486118657
 10
0.0423732109845503
 20
1.324201331922268
 10
0.0426202442879742
 20
1.323676807174934
 10
0.0429448780306245
 20
1.323262224315954
 10
0.043733525453348
 20
1.322701393337184
 10
0.0455045414676079
 20
1.322184085165986
 10
0.0475037314079714
 20
1.321901802872503
 10
0.0498953074816768
 20
1.321651586269923
 10
0.0525909804597973
 20
1.321409774825952
 10
0.055718295491971
 20
1.321146562320678
 10
0.0590442405754743
 20
1.320859228031395
 10
0.0606020872110946
 20
1.32071162783086
 10
0.0619134183561414
 20
1.320573778199787
 10
0.0637240711061224
 20
1.320338750891665
 10
0.0642312236959413
 20
1.320250182057521
 10
0.0644311421027908
 20
1.320212179321857
 10
0.0644227895822667
 20
1.320217348617007
  0
LWPOLYLINE
  5
C41
330
1F
100
AcDbEntity
  8
S&C_vistas
  6
Continuous
 62
   255
100
AcDbPolyline
 90
       23
 70
   128
 43
0.0
 10
0.0453283804559987
 20
1.32223554123982
 10
0.0450471740574869
 20
1.322189917493802
 10
0.0438862251250498
 20
1.321845184598033
 10
0.0432415365354188
 20
1.321467006264129
 10
0.0425668029037354
 20
1.320691521043386
 10
0.0423288275512732
 20
1.320107402883195
 10
0.0422464546208801
 20
1.319422819777742
 10
0.0423628005688954
 20
1.318719745429121
 10
0.0426097445632365
 20
1.318177331247853
 10
0.0428814295990492
 20
1.317809503601325
 10
0.0431168900685464
 20
1.317575887461658
 10
0.0434947575513718
 20
1.317299708187761
 10
0.0444652605966667
 20
1.316899890941954
 10
0.046061812580831
 20
1.316578541081526
 10
0.0484179502730058
 20
1.316284794287185
 10
0.0515566889485228
 20
1.315984602983349
 10
0.0548505369551719
 20
1.31570409959545
 10
0.0578542387056018
 20
1.3154497050175
 10
0.0604678459475281
 20
1.315209856435672
 10
0.0626994947527635
 20
1.314965657773882
 10
0.0635563915701596
 20
1.314850030593107
 10
0.0640672912695379
 20
1.314783800895384
 10
0.0640851566049037
 20
1.314831784661578
  0
LWPOLYLINE
  5
C42
330
1F
100
AcDbEntity
  8
S&C_vistas
  6
Continuous
 62
   255
100
AcDbPolyline
 90
       24
 70
   128
 43
0.0
 10
0.0453318423823248
 20
1.316725467597962
 10
0.0447414342622778
 20
1.316607528623422
 10
0.0441806570817391
 20
1.316446142553332
 10
0.0437417774168125
 20
1.316265969460233
 10
0.0431998049609774
 20
1.315924626568744
 10
0.0428835223213753
 20
1.315624459193828
 10
0.0424874690057209
 20
1.315029351610747
 10
0.0422458088432904
 20
1.314034269602757
 10
0.0422969255395458
 20
1.313452278176555
 10
0.0424838257654301
 20
1.312896743359943
 10
0.0431320731148048
 20
1.312051907445266
 10
0.0437903443539938
 20
1.311628900618189
 10
0.0449600546930924
 20
1.31125910086871
 10
0.0467362247097753
 20
1.310966934122462
 10
0.0480085984523555
 20
1.31081397774858
 10
0.0495290038828671
 20
1.310656763532279
 10
0.0526910524110633
 20
1.310371037575123
 10
0.0556492092029828
 20
1.310122174038838
 10
0.0584388901344255
 20
1.309883369817157
 10
0.0610255100671964
 20
1.309638644113193
 10
0.0630671839081742
 20
1.309402574810406
 10
0.0641656696437565
 20
1.309233006161662
 10
0.0643858521545724
 20
1.309192561301074
 10
0.0643950696628508
 20
1.309195943066584
  0
LWPOLYLINE
  5
C43
330
1F
100
AcDbEntity
  8
S&C_vistas
  6
Continuous
 62
   255
100
AcDbPolyline
 90
       25
 70
   128
 43
0.0
 10
0.0452972340937663
 20
1.311203637367271
 10
0.0451391843691624
 20
1.311179054419995
 10
0.043701644278201
 20
1.310724019987902
 10
0.0430094526186906
 20
1.310235416967657
 10
0.0426697482518534
 20
1.309829078074813
 10
0.0423886966803764
 20
1.309270629972502
 10
0.0422495146661674
 20
1.308571367274794
 10
0.0423108155617626
 20
1.307879235142536
 10
0.0425341127071022
 20
1.307282298706014
 10
0.0428539121992344
 20
1.306813803698333
 10
0.0435317995226114
 20
1.30625032089813
 10
0.0443779272870302
 20
1.305892470799904
 10
0.0452592064295629
 20
1.305683339068196
 10
0.0468496353420562
 20
1.30543671215446
 10
0.0490245179736917
 20
1.30519170833179
 10
0.0515965214339644
 20
1.304950883772449
 10
0.0543620279665049
 20
1.30471479304174
 10
0.0573854278490842
 20
1.304460090911448
 10
0.0590066605620621
 20
1.304317354205182
 10
0.0606169736119853
 20
1.3041650326021
 10
0.0620967252125695
 20
1.304007467130873
 10
0.0631992782745954
 20
1.303869603902854
 10
0.0639199328622624
 20
1.303760975183081
 10
0.0643082057080164
 20
1.303690681495823
 10
0.0643815076354315
 20
1.303684168322889
  0
LWPOLYLINE
  5
C44
330
1F
100
AcDbEntity
  8
S&C_vistas
  6
Continuous
 62
   255
100
AcDbPolyline
 90
       24
 70
   128
 43
0.0
 10
0.0452901895381501
 20
1.305678534535105
 10
0.0446814988275435
 20
1.305547338852307
 10
0.0437378220838696
 20
1.305205374563457
 10
0.0430661930070357
 20
1.304768181293866
 10
0.0426793530936891
 20
1.304332938316179
 10
0.0425588336390206
 20
1.304138178469088
 10
0.0424095409144627
 20
1.303818612034661
 10
0.0422833847135564
 20
1.303366383035268
 10
0.0422718058869691
 20
1.302561360146683
 10
0.0423855985924604
 20
1.302103610910081
 10
0.042590669557427
 20
1.301663841814161
 10
0.0428685232429871
 20
1.301283507238622
 10
0.0434103893812221
 20
1.300825112967118
 10
0.0440832346065463
 20
1.300493596828574
 10
0.0459851441959245
 20
1.30004409464425
 10
0.0481027144971051
 20
1.299773454470824
 10
0.0505849734237813
 20
1.299526815783338
 10
0.0533688787546112
 20
1.299283201364119
 10
0.0565516559624086
 20
1.299016102752944
 10
0.0598379810722065
 20
1.298725358837828
 10
0.0624740141671225
 20
1.29844846125377
 10
0.0640017468631413
 20
1.298234048871336
 10
0.0643572076982366
 20
1.298167674357614
 10
0.0643811770239324
 20
1.298172614230452
  0
LWPOLYLINE
  5
C45
330
1F
100
AcDbEntity
  8
S&C_vistas
  6
Continuous
 62
   255
100
AcDbPolyline
 90
       26
 70
   128
 43
0.0
 10
0.0630791834282149
 20
1.297127196402926
 10
0.0637539178388806
 20
1.297207694190661
 10
0.0650171649263029
 20
1.297408770064635
 10
0.0657798700680132
 20
1.297578906120066
 10
0.0662633552984744
 20
1.297733937010662
 10
0.0668207269611685
 20
1.298008395470333
 10
0.0674915450907463
 20
1.298593526621289
 10
0.06780391839456
 20
1.299080442418699
 10
0.0680101737192444
 20
1.29969326752655
 10
0.0680462677396747
 20
1.300394504158362
 10
0.0678857015813321
 20
1.301074675532163
 10
0.0676184435819209
 20
1.301579689330765
 10
0.0673380885243944
 20
1.301921628730042
 10
0.0668877420887384
 20
1.302291997006364
 10
0.0659421531019007
 20
1.302714149936037
 10
0.0644712660375149
 20
1.30302823833847
 10
0.0622468423493103
 20
1.303318581500889
 10
0.0608166638170076
 20
1.303466502478614
 10
0.05919496299407
 20
1.303617981371303
 10
0.0558696180607399
 20
1.303903541942077
 10
0.0527953746236278
 20
1.304162803345776
 10
0.0501399149158317
 20
1.304402992156724
 10
0.0478480823021243
 20
1.304646837885571
 10
0.0469315655311959
 20
1.304766356386949
 10
0.0463140169421479
 20
1.304855210832784
 10
0.046171378928932
 20
1.304835790668676
  0
LWPOLYLINE
  5
C46
330
1F
100
AcDbEntity
  8
S&C_vistas
  6
Continuous
 62
   255
100
AcDbPolyline
 90
       23
 70
   128
 43
0.0
 10
0.0649743844726345
 20
1.302920804076962
 10
0.0654522075262776
 20
1.30301004178898
 10
0.0661273690708697
 20
1.303198702594955
 10
0.0666664147081519
 20
1.30343149183193
 10
0.0670433330554374
 20
1.303672663701946
 10
0.0674251331621747
 20
1.304026076723972
 10
0.0678243296387677
 20
1.30463402605892
 10
0.0680546346797826
 20
1.30556616058584
 10
0.067883646131861
 20
1.306595221962425
 10
0.067336316881466
 20
1.307435511568883
 10
0.066706841702171
 20
1.30791342327359
 10
0.0661391343049331
 20
1.308165880977526
 10
0.0648623514130122
 20
1.308478259794697
 10
0.0627362169783794
 20
1.308778252918387
 10
0.0612440835205348
 20
1.308939201705471
 10
0.0596335947037971
 20
1.30909322759112
 10
0.0564508753714392
 20
1.309369911635031
 10
0.0535738558844514
 20
1.309611309026991
 10
0.050859944325282
 20
1.30985005348964
 10
0.0484596931339354
 20
1.310091309648442
 10
0.0467603053912171
 20
1.310307139976885
 10
0.0459678322548598
 20
1.310440918742756
 10
0.0459342307807731
 20
1.310436890081178
  0
LWPOLYLINE
  5
C47
330
1F
100
AcDbEntity
  8
S&C_vistas
  6
Continuous
 62
   255
100
AcDbPolyline
 90
       26
 70
   128
 43
0.0
 10
0.0650125844225329
 20
1.308441503655331
 10
0.0653427696718722
 20
1.308501212163037
 10
0.0662214767250759
 20
1.308751217935765
 10
0.0670928078218083
 20
1.309231500208853
 10
0.0674331894517763
 20
1.30955516697702
 10
0.0677537678799922
 20
1.310014864839673
 10
0.0679898380834913
 20
1.310634747587869
 10
0.0680507025105612
 20
1.311351658772423
 10
0.0679182012372337
 20
1.312013321744189
 10
0.0676476451879182
 20
1.31256290375984
 10
0.0669665777929538
 20
1.31326462400682
 10
0.0661645946484555
 20
1.313671970071255
 10
0.0654410199036874
 20
1.313875709818262
 10
0.0645365146825156
 20
1.314049142079512
 10
0.062703666039539
 20
1.314297342144187
 10
0.0602866806765974
 20
1.314547637443297
 10
0.0575763712390369
 20
1.314789670330242
 10
0.0547460715336854
 20
1.315027691758928
 10
0.0516325003320333
 20
1.315294930634423
 10
0.05004409744393
 20
1.315442338476259
 10
0.0485386682764783
 20
1.315597521993027
 10
0.047349995612052
 20
1.315739851422109
 10
0.0465419694368165
 20
1.315855619150284
 10
0.0460721413396925
 20
1.315936782382551
 10
0.0458913694887144
 20
1.315968781924084
 10
0.0458942665648863
 20
1.315966748225719
  0
LWPOLYLINE
  5
C48
330
1F
100
AcDbEntity
  8
S&C_vistas
  6
Continuous
 62
   255
100
AcDbPolyline
 90
       22
 70
   128
 43
0.0
 10
0.06492468808068
 20
1.313974712669278
 10
0.0663695042469499
 20
1.314348618556551
 10
0.0671184156745142
 20
1.314777630796584
 10
0.0675575192676661
 20
1.315219815055343
 10
0.067695952941591
 20
1.315423530287717
 10
0.0677994619475442
 20
1.315611979595019
 10
0.0679886447858564
 20
1.316133511447447
 10
0.0680510335723454
 20
1.316894691624611
 10
0.0678074685689012
 20
1.317800262762148
 10
0.0675571777635469
 20
1.318208431090284
 10
0.0670485826167067
 20
1.318708222806777
 10
0.0663790924487841
 20
1.319082022018961
 10
0.0644205416460579
 20
1.31958178952641
 10
0.0623031496291446
 20
1.31985762523459
 10
0.0598257358016951
 20
1.320105808209632
 10
0.0570648585286904
 20
1.320348254442138
 10
0.0539087070930293
 20
1.320613144964113
 10
0.0506268946556929
 20
1.320901898948591
 10
0.0479276290099051
 20
1.321182156218924
 10
0.0463599446287617
 20
1.321396334743099
 10
0.0459949903509767
 20
1.321459595469378
 10
0.0459505234249207
 20
1.321456639418784
  0
LWPOLYLINE
  5
C49
330
1F
100
AcDbEntity
  8
S&C_vistas
  6
Continuous
 62
   255
100
AcDbPolyline
 90
       22
 70
   128
 43
0.0
 10
0.0649003413575429
 20
1.319459358029917
 10
0.0654064342931804
 20
1.3195465824233
 10
0.0665078503747907
 20
1.319899686990993
 10
0.0671561529821929
 20
1.320313701139412
 10
0.0678122935921976
 20
1.321160757373036
 10
0.0680135134160196
 20
1.321777946879706
 10
0.0680424321928967
 20
1.322481368096419
 10
0.0678748599500523
 20
1.323159264148558
 10
0.0675984648166548
 20
1.323667053514896
 10
0.0670358543540317
 20
1.324247006322594
 10
0.0665563314233566
 20
1.324539748986354
 10
0.0654533181592285
 20
1.324903480506123
 10
0.0637717183818154
 20
1.325192916693254
 10
0.0612869562302478
 20
1.325480094604018
 10
0.0580468780010506
 20
1.325779368352983
 10
0.0547469490202559
 20
1.326057783185661
 10
0.0517998036134486
 20
1.326310213122952
 10
0.0492686727365026
 20
1.326549968642325
 10
0.0471831730372969
 20
1.326791900880494
 10
0.0464480006890824
 20
1.326899119882796
 10
0.04610758373218
 20
1.326936460613524
 10
0.0461298506051264
 20
1.32690799019781
  0
LWPOLYLINE
  5
C4A
330
1F
100
AcDbEntity
  8
S&C_vistas
  6
Continuous
 62
   255
100
AcDbPolyline
 90
       24
 70
   128
 43
0.0
 10
0.0650019064911191
 20
1.324981177276641
 10
0.0652169514546017
 20
1.325019445091584
 10
0.0662776698364098
 20
1.325314602648291
 10
0.0667469470430149
 20
1.325538063721979
 10
0.0672379471250792
 20
1.325897163281979
 10
0.0676952032724785
 20
1.326453564046346
 10
0.0679808454762281
 20
1.327132030636449
 10
0.0680552606354183
 20
1.327856620170792
 10
0.0678713012980836
 20
1.328687297399028
 10
0.0673391116400239
 20
1.329493469354929
 10
0.0667099815845802
 20
1.32997218964158
 10
0.065576309257267
 20
1.330389605538812
 10
0.063900130512593
 20
1.330690446993003
 10
0.0626609253193635
 20
1.330847267773152
 10
0.0611045451669554
 20
1.331013493870955
 10
0.0594059217297627
 20
1.33117427980801
 10
0.0576803299385915
 20
1.331325947323421
 10
0.0543785222342592
 20
1.331603792481587
 10
0.0514334917374981
 20
1.331857971724503
 10
0.0489544407802498
 20
1.332097474049192
 10
0.047034310866934
 20
1.332322603295438
 10
0.0463683054805983
 20
1.33241668556343
 10
0.0460300171090182
 20
1.332460366878649
 10
0.0460352668340533
 20
1.332451748471271
  0
LWPOLYLINE
  5
C4B
330
1F
100
AcDbEntity
  8
S&C_vistas
  6
Continuous
 62
   255
100
AcDbPolyline
 90
       24
 70
   128
 43
0.0
 10
0.0649987084123609
 20
1.330493273646198
 10
0.0662738045501499
 20
1.330830358362164
 10
0.0668698684944218
 20
1.331130879018701
 10
0.067503891256905
 20
1.33169927920278
 10
0.0678079336031487
 20
1.332180960349092
 10
0.0680169582675205
 20
1.332827690701833
 10
0.0680391225744188
 20
1.333541907864287
 10
0.0678759376216078
 20
1.334185722093935
 10
0.0675866063618002
 20
1.334711683455339
 10
0.0672443421941296
 20
1.335099287736853
 10
0.0665844155315369
 20
1.335553794620068
 10
0.0654832400271346
 20
1.335926339476259
 10
0.0640288606597892
 20
1.336187433197892
 10
0.0619124109635152
 20
1.336445446601488
 10
0.0592769815737597
 20
1.336701112181686
 10
0.0564606708738609
 20
1.336944500225286
 10
0.0535769411878277
 20
1.337186468769573
 10
0.0505026630381735
 20
1.3374588632214
 10
0.0490149407123397
 20
1.337606466894158
 10
0.04772810255011
 20
1.337752232438561
 10
0.0468063554716025
 20
1.337875656014603
 10
0.04622234052556
 20
1.337969602511521
 10
0.04593308192824
 20
1.338023517565716
 10
0.0459405443787944
 20
1.338008895927487
  0
LWPOLYLINE
  5
C4C
330
1F
100
AcDbEntity
  8
S&C_vistas
  6
Continuous
 62
   255
100
AcDbPolyline
 90
       25
 70
   128
 43
0.0
 10
0.0649930248203816
 20
1.336014344102523
 10
0.0651306879409503
 20
1.336038220295677
 10
0.066194601382989
 20
1.33633759624729
 10
0.0670920249838218
 20
1.33681701997989
 10
0.0676007057004142
 20
1.337339154437132
 10
0.0677536617166652
 20
1.337584154448791
 10
0.067926998271588
 20
1.337980012586513
 10
0.0680443696469695
 20
1.338516504965696
 10
0.0679735579846579
 20
1.339416048010207
 10
0.0678019891010706
 20
1.339871813835202
 10
0.0675543244933863
 20
1.340270489505087
 10
0.0668652796561275
 20
1.340888641091851
 10
0.06545776751517
 20
1.341436350594563
 10
0.0639523480263051
 20
1.341712652567253
 10
0.0617381610953771
 20
1.341978924505042
 10
0.0591855460238833
 20
1.342224378051242
 10
0.0563164217901999
 20
1.342471701809473
 10
0.0529763963278356
 20
1.342752750031082
 10
0.0512372484421348
 20
1.342905869449282
 10
0.0495513551429383
 20
1.343066513783242
 10
0.0481260222072137
 20
1.343219552622145
 10
0.0470551826674068
 20
1.343353780423286
 10
0.0463445937941742
 20
1.343459996471665
 10
0.0459771680012011
 20
1.343522373943756
 10
0.0459566879340514
 20
1.343513739388754
  0
LWPOLYLINE
  5
C4D
330
1F
100
AcDbEntity
  8
S&C_vistas
  6
Continuous
 62
   255
100
AcDbPolyline
 90
       23
 70
   128
 43
0.0
 10
0.0649463960049559
 20
1.341530206797529
 10
0.0656902662403809
 20
1.341675416213207
 10
0.0668105391653455
 20
1.342123666895759
 10
0.0674931880471661
 20
1.342717617179119
 10
0.067805252142449
 20
1.343206503675447
 10
0.0680101046385175
 20
1.343820760911626
 10
0.068044131290975
 20
1.344522746185817
 10
0.0678802132233045
 20
1.345205592894672
 10
0.0675997812446951
 20
1.345724867879767
 10
0.0672902744741748
 20
1.346087968974871
 10
0.0667355855312337
 20
1.346504031356744
 10
0.0662009671829367
 20
1.346749906735113
 10
0.0649388172734291
 20
1.347069442157931
 10
0.0630314709284505
 20
1.347348736857612
 10
0.0602931553428334
 20
1.347637509383162
 10
0.0569393263229188
 20
1.347934316836131
 10
0.0537006829293318
 20
1.348206143868765
 10
0.0508963654395984
 20
1.348452345066789
 10
0.0484946672741557
 20
1.348692884111983
 10
0.0474796938644886
 20
1.348813306623924
 10
0.0466471470754186
 20
1.348929552249729
 10
0.04614937099808
 20
1.34900644442655
 10
0.0461119338674223
 20
1.348979958939367
  0
LWPOLYLINE
  5
C4E
330
1F
100
AcDbEntity
  8
S&C_vistas
  6
Continuous
 62
   255
100
AcDbPolyline
 90
       24
 70
   128
 43
0.0
 10
0.0650286734390022
 20
1.347046693491052
 10
0.0655625329348766
 20
1.347157039192098
 10
0.0666002939056511
 20
1.347518800365037
 10
0.0671366670452187
 20
1.347869584267528
 10
0.067651779507429
 20
1.348446320182234
 10
0.0679487537584009
 20
1.349078578111062
 10
0.0680516462104208
 20
1.349628716601956
 10
0.0680415796911404
 20
1.350089942326576
 10
0.0679036135374815
 20
1.350665706650602
 10
0.067556095392689
 20
1.351301325480904
 10
0.0670161919517795
 20
1.351836032566553
 10
0.0659532492208825
 20
1.352347203605177
 10
0.064527233004128
 20
1.352656176888217
 10
0.0634490241434662
 20
1.352811414725238
 10
0.0620463907322062
 20
1.352976170929423
 10
0.0603483164912291
 20
1.353147318519746
 10
0.0585754548737611
 20
1.35330863501099
 10
0.0551275757111398
 20
1.353601393096369
 10
0.0520746742245706
 20
1.353861244046016
 10
0.0494608066932187
 20
1.354105636135046
 10
0.0474244720179229
 20
1.354332675794467
 10
0.0466725480767991
 20
1.354430135298344
 10
0.0461944307948272
 20
1.354489886574129
 10
0.0461498899374817
 20
1.354462128541854
  0
LWPOLYLINE
  5
C4F
330
1F
100
AcDbEntity
  8
S&C_vistas
  6
Continuous
 62
   255
100
AcDbPolyline
 90
       25
 70
   128
 43
0.0
 10
0.0649640022012932
 20
1.352561542611852
 10
0.0660130422756424
 20
1.352797903960663
 10
0.0665670687910165
 20
1.353018485953271
 10
0.0671144122523799
 20
1.353367232689493
 10
0.0677259102460539
 20
1.354085216226395
 10
0.067970265240092
 20
1.354678049676295
 10
0.0680539916868383
 20
1.355392883807326
 10
0.0679407090400161
 20
1.356064718758262
 10
0.0676820520575632
 20
1.356628595826351
 10
0.0670024002313312
 20
1.357358862291221
 10
0.0663771928869323
 20
1.357709973058604
 10
0.0658485214680127
 20
1.35789297541919
 10
0.0645495148415307
 20
1.358167538153339
 10
0.0626003211757222
 20
1.358429921182051
 10
0.0599660004516522
 20
1.358698354844478
 10
0.0571062610139847
 20
1.358950365530291
 10
0.0542568173037523
 20
1.359189400080709
 10
0.0512850388160189
 20
1.359446909183816
 10
0.0498130005087205
 20
1.35958565162457
 10
0.0484319704429481
 20
1.359730065562076
 10
0.0473240546982368
 20
1.359864030144877
 10
0.0465537710332171
 20
1.359974628125087
 10
0.0460902010215136
 20
1.360054009464875
 10
0.0458970328113821
 20
1.360088606992576
 10
0.0459021769014498
 20
1.360084403609108
  0
LWPOLYLINE
  5
C50
330
1F
100
AcDbEntity
  8
S&C_vistas
  6
Continuous
 62
   255
100
AcDbPolyline
 90
       26
 70
   128
 43
0.0
 10
0.0649287540332466
 20
1.358087380787538
 10
0.0656064565116878
 20
1.358208437404869
 10
0.0665989739181896
 20
1.358570558945644
 10
0.0673721351817846
 20
1.35912751910007
 10
0.0676486826190512
 20
1.359471955497497
 10
0.0678559397768197
 20
1.359855578911606
 10
0.0680530431118882
 20
1.360680165099893
 10
0.0679826187502215
 20
1.361442510123879
 10
0.067734985563277
 20
1.362060462841441
 10
0.0675420362634895
 20
1.362349860880613
 10
0.067285279945736
 20
1.362629717578443
 10
0.0665183078486109
 20
1.363132579881267
 10
0.0655010369220577
 20
1.363482489852004
 10
0.0644518113983281
 20
1.363695637659362
 10
0.0622756078515181
 20
1.363981203549542
 10
0.0597761465658664
 20
1.364231072538587
 10
0.05702156739207
 20
1.364472578958839
 10
0.0538090753730103
 20
1.364742241558588
 10
0.0520921517901343
 20
1.364889830955121
 10
0.0503829214430027
 20
1.365045550529317
 10
0.0487958182861803
 20
1.365205320575456
 10
0.0475450657340843
 20
1.365350034439757
 10
0.0466605925802526
 20
1.365471422092924
 10
0.0461262470386714
 20
1.365558841028474
 10
0.0459160671523762
 20
1.365592518570907
 10
0.0459267155416683
 20
1.365584278924644
  0
LWPOLYLINE
  5
C51
330
1F
100
AcDbEntity
  8
S&C_vistas
  6
Continuous
 62
   255
100
AcDbPolyline
 90
       22
 70
   128
 43
0.0
 10
0.0649737698074091
 20
1.363589602981506
 10
0.0653010716497704
 20
1.363644366282188
 10
0.0664123017535587
 20
1.363976829906505
 10
0.0670449968695834
 20
1.364344543856873
 10
0.0677202334636604
 20
1.365106673173841
 10
0.0679641665192605
 20
1.365685835393833
 10
0.0680549885074129
 20
1.366367801741148
 10
0.0679461886483352
 20
1.367077454505647
 10
0.067686586436281
 20
1.367652649438583
 10
0.0670542734848709
 20
1.368351327160212
 10
0.0664714476636448
 20
1.368698076381634
 10
0.0652442993530542
 20
1.369070516402871
 10
0.0635364048278859
 20
1.369345354905931
 10
0.061026419245735
 20
1.369626870916704
 10
0.05775539559815
 20
1.369925159313425
 10
0.0544266710391241
 20
1.370205299654913
 10
0.0514802163083345
 20
1.370459458317669
 10
0.0490041347280226
 20
1.370698188126653
 10
0.0470077194484588
 20
1.370936905370741
 10
0.046318184679734
 20
1.371043064046489
 10
0.0460260968018247
 20
1.371081775285461
 10
0.0460442838795529
 20
1.371064045587559
  0
LWPOLYLINE
  5
C52
330
1F
100
AcDbEntity
  8
S&C_vistas
  6
Continuous
 62
   255
100
AcDbPolyline
 90
       24
 70
   128
 43
0.0
 10
0.0650296096025329
 20
1.369105064794894
 10
0.0651092665243596
 20
1.369118683683041
 10
0.0662765795497933
 20
1.36943517707607
 10
0.0668447578415226
 20
1.369719002320267
 10
0.0674766985747794
 20
1.370270162344013
 10
0.0679319894840944
 20
1.371086959913669
 10
0.0680571047176954
 20
1.371803602118916
 10
0.0679877239823554
 20
1.372451682527981
 10
0.0676985188659671
 20
1.37315146372373
 10
0.0671922747774545
 20
1.373754187806412
 10
0.0666586344646305
 20
1.374121162309166
 10
0.0656131267273281
 20
1.374501087066051
 10
0.0639850030136699
 20
1.374799028398229
 10
0.0627284973851943
 20
1.374959973449904
 10
0.0610994522758119
 20
1.375134600283786
 10
0.0592874490987469
 20
1.375305644392256
 10
0.0574640100347779
 20
1.375465109970719
 10
0.0540581938038827
 20
1.375751408914539
 10
0.0511270796677366
 20
1.376006465398405
 10
0.0486941691837046
 20
1.376246135064662
 10
0.0477091718684335
 20
1.37635854227176
 10
0.0469051716401054
 20
1.376458695374026
 10
0.0463670128553417
 20
1.376520236223428
 10
0.0462057871612274
 20
1.376494851366829
  0
LWPOLYLINE
  5
C53
330
1F
100
AcDbEntity
  8
S&C_vistas
  6
Continuous
 62
   255
100
AcDbPolyline
 90
       24
 70
   128
 43
0.0
 10
0.0649712400364422
 20
1.374618550238097
 10
0.0652148483972326
 20
1.37465719789293
 10
0.0664003399934074
 20
1.375001259347414
 10
0.0668927499622498
 20
1.375263962390591
 10
0.0674252109524787
 20
1.375725128408703
 10
0.0677218348465942
 20
1.376137951989222
 10
0.0679655926460327
 20
1.376720712298493
 10
0.0680545304496718
 20
1.377434318626342
 10
0.0679458729312898
 20
1.37810841621706
 10
0.0676901488649264
 20
1.378675600338852
 10
0.0673565584371261
 20
1.379108871983249
 10
0.0666839727964827
 20
1.379621697313496
 10
0.065579823920956
 20
1.380024148909001
 10
0.0641200813951457
 20
1.380294622702877
 10
0.0618906863277005
 20
1.38056843457889
 10
0.0590563874957013
 20
1.38084153669422
 10
0.0561223772110679
 20
1.381093570746998
 10
0.0532704174871697
 20
1.38133320063946
 10
0.0503746994440064
 20
1.381591685731337
 10
0.0490011819138374
 20
1.381728616720125
 10
0.0477878878246827
 20
1.381865595149407
 10
0.0462890912199327
 20
1.382078736249582
 10
0.0459663402947683
 20
1.38213760358758
 10
0.0459406099380431
 20
1.382131188663038
  0
LWPOLYLINE
  5
C54
330
1F
100
AcDbEntity
  8
S&C_vistas
  6
Continuous
 62
   255
100
AcDbPolyline
 90
       27
 70
   128
 43
0.0
 10
0.0648892287806291
 20
1.380152108384323
 10
0.0662689178525397
 20
1.380480438130803
 10
0.0671832523417777
 20
1.381008480494984
 10
0.0675240629856546
 20
1.381359853820072
 10
0.067786743384886
 20
1.381769064229047
 10
0.067964780079194
 20
1.382224248449234
 10
0.0680475846039315
 20
1.382672558089894
 10
0.0680001149081875
 20
1.383428471825937
 10
0.0678289787675794
 20
1.383937686080799
 10
0.0677396049166532
 20
1.384112994664065
 10
0.0676260712992587
 20
1.384295833436795
 10
0.0672802099489616
 20
1.384693116795802
 10
0.0667070711616304
 20
1.385093164013824
 10
0.0658385216693489
 20
1.385445921524934
 10
0.0648580883330396
 20
1.385682556885513
 10
0.0627427492718766
 20
1.385988275907152
 10
0.0602986948406397
 20
1.386242648444977
 10
0.0576063100025692
 20
1.386483138557765
 10
0.0545271691530615
 20
1.386742156488253
 10
0.0528466758858883
 20
1.386884583312735
 10
0.0511415061684772
 20
1.387035243973855
 10
0.0494853711602161
 20
1.38719377937116
 10
0.0480612241040319
 20
1.387347898909411
 10
0.0470134395513639
 20
1.387480899232855
 10
0.046329332695251
 20
1.387585230381774
 10
0.0459721286962349
 20
1.387648562084792
 10
0.0459283512315949
 20
1.387647068610136
  0
LWPOLYLINE
  5
C55
330
1F
100
AcDbEntity
  8
S&C_vistas
  6
Continuous
 62
   255
100
AcDbPolyline
 90
       22
 70
   128
 43
0.0
 10
0.0649979968146397
 20
1.385648788863932
 10
0.0660837500320781
 20
1.385911525247707
 10
0.0666530004170909
 20
1.386153476785125
 10
0.0673219530454787
 20
1.386647181841568
 10
0.0676586797658842
 20
1.387065733950976
 10
0.0679255441254725
 20
1.387619921345845
 10
0.0680519999032185
 20
1.38828492501068
 10
0.0679837868177628
 20
1.389001533554278
 10
0.0677442754875131
 20
1.38961379804482
 10
0.0674259316369614
 20
1.390064609787942
 10
0.0667739304636541
 20
1.390598824730432
 10
0.0655011947687569
 20
1.391073976385428
 10
0.0639377350672703
 20
1.391350961033481
 10
0.0616303392249336
 20
1.391625972202178
 10
0.0585029480870674
 20
1.391920669175761
 10
0.0551088888015556
 20
1.392208509294392
 10
0.0520365108476426
 20
1.392470241567594
 10
0.0494741276701518
 20
1.392710065864662
 10
0.0473656008008447
 20
1.392948795254028
 10
0.0465644300304859
 20
1.39306346566309
 10
0.0460744608925836
 20
1.393145890077676
 10
0.0460315070812953
 20
1.39313202286462
  0
LWPOLYLINE
  5
C56
330
1F
100
AcDbEntity
  8
S&C_vistas
  6
Continuous
 62
   255
100
AcDbPolyline
 90
       22
 70
   128
 43
0.0
 10
0.0649778251958821
 20
1.391166697251151
 10
0.0653104432103646
 20
1.391220455190023
 10
0.06643399872695
 20
1.39156126284297
 10
0.067028488018309
 20
1.391906279597379
 10
0.0676544536035806
 20
1.392572166158288
 10
0.0680207482383821
 20
1.39350134673191
 10
0.0680032598096716
 20
1.394443432302864
 10
0.0676899305483118
 20
1.395227418641639
 10
0.0672228444513792
 20
1.395789460686387
 10
0.0667139613527752
 20
1.396153457913329
 10
0.0661755513221749
 20
1.396394287985572
 10
0.0646998209505796
 20
1.396747635986117
 10
0.0623133343291329
 20
1.397067594654573
 10
0.0607144111302773
 20
1.397232843320694
 10
0.0590193578375136
 20
1.397390030364477
 10
0.0556774815447625
 20
1.397676060770436
 10
0.0527094671041084
 20
1.397926621213401
 10
0.0501068121972423
 20
1.398162553158386
 10
0.0479386616299848
 20
1.398391906669758
 10
0.047094960269078
 20
1.398495096589272
 10
0.0465124400284651
 20
1.398560032379578
 10
0.0462904234187533
 20
1.398526280319402
  0
LWPOLYLINE
  5
C57
330
1F
100
AcDbEntity
  8
S&C_vistas
  6
Continuous
 62
   255
100
AcDbPolyline
 90
       23
 70
   128
 43
0.0
 10
0.0649487423866049
 20
1.396688034385761
 10
0.0657577831247238
 20
1.396845606260399
 10
0.0667671405860233
 20
1.397245243316092
 10
0.0672033144059299
 20
1.397561787220184
 10
0.0674706250260044
 20
1.397837667135377
 10
0.0677544483652355
 20
1.398256021058614
 10
0.0679841703652642
 20
1.398851496922703
 10
0.0680520623891709
 20
1.399567723749669
 10
0.0679253223491116
 20
1.400232846870608
 10
0.0676580172957983
 20
1.400787192621465
 10
0.0669763655422742
 20
1.401498134845951
 10
0.066356322314391
 20
1.401839381911032
 10
0.065236962270518
 20
1.402161720184381
 10
0.0635522551901602
 20
1.402433919087798
 10
0.060990111980459
 20
1.402720918415639
 10
0.0579967212760266
 20
1.402994875349918
 10
0.0550424049400533
 20
1.403244240490835
 10
0.0522124141517395
 20
1.403484936408631
 10
0.0494552739845346
 20
1.403742093763071
 10
0.0472162402998606
 20
1.403999145206171
 10
0.0460807392450704
 20
1.404176424249385
 10
0.0458995248963845
 20
1.404207685075789
 10
0.0459036132661481
 20
1.404204598397314
  0
LWPOLYLINE
  5
C58
330
1F
100
AcDbEntity
  8
S&C_vistas
  6
Continuous
 62
   255
100
AcDbPolyline
 90
       25
 70
   128
 43
0.0
 10
0.0649601181848141
 20
1.40220645001159
 10
0.0666196525820908
 20
1.402695564809846
 10
0.0674097533705833
 20
1.403285927122965
 10
0.067697071652276
 20
1.403669228997387
 10
0.0679079035714381
 20
1.404109180307614
 10
0.0680572021372257
 20
1.404991815561402
 10
0.0679517150842912
 20
1.405673968693236
 10
0.0677743383289453
 20
1.406108980102204
 10
0.067671989400111
 20
1.406286427024952
 10
0.0675350565696817
 20
1.406479365336509
 10
0.067116291977328
 20
1.406888247325014
 10
0.0664224017765207
 20
1.407287054842072
 10
0.06438523566257
 20
1.40782495379176
 10
0.0621587745575596
 20
1.408114599335704
 10
0.0596260427477375
 20
1.408365534031077
 10
0.0568743853281148
 20
1.408605696341169
 10
0.0537259274644839
 20
1.408869949934342
 10
0.0520434660269871
 20
1.409014796893302
 10
0.0503670905935962
 20
1.409167665669088
 10
0.0487843956661038
 20
1.409327184302242
 10
0.0475119140667744
 20
1.409475065170682
 10
0.0466176752624676
 20
1.409599252138833
 10
0.046085374774492
 20
1.409688992662723
 10
0.0458833429182732
 20
1.409724098421975
 10
0.0458854180301671
 20
1.409722659713566
  0
LWPOLYLINE
  5
C59
330
1F
100
AcDbEntity
  8
S&C_vistas
  6
Continuous
 62
   255
100
AcDbPolyline
 90
       18
 70
   128
 43
0.0
 10
0.0648755296364527
 20
1.407695495220992
 10
0.0657077357724063
 20
1.407860959286609
 10
0.0668334224338025
 20
1.408318361368742
 10
0.067513990322567
 20
1.408924919981359
 10
0.0678204008895875
 20
1.409421401467398
 10
0.0680160105537482
 20
1.410042207324068
 10
0.068037638388148
 20
1.410747798407328
 10
0.0678609773076744
 20
1.411428164686981
 10
0.0675621636030428
 20
1.411953474110533
 10
0.0672188813896071
 20
1.412330732396526
 10
0.0665323610746498
 20
1.412784990611158
 10
0.0658431348424813
 20
1.413043741190791
 10
0.0651182662153076
 20
1.413216819515696
 10
0.0642758443791251
 20
1.413361782946822
 10
0.0630127546068593
 20
1.413531831739419
 10
0.0611475229428322
 20
1.413735395164053
 10
0.0585820696737187
 20
1.413974056677375
 10
0.0553498566850976
 20
1.414248709346566
  0
LINE
  5
C5A
330
1F
100
AcDbEntity
  8
S&C_vistas
  6
Continuous
 62
   255
100
AcDbLine
 10
0.0631727775000002
 20
1.417877894999947
 30
0.0
 11
0.0631727775000002
 21
1.43091354750004
 31
0.0
  0
LINE
  5
C5B
330
1F
100
AcDbEntity
  8
S&C_vistas
  6
Continuous
 62
   255
100
AcDbLine
 10
0.0631727775000002
 20
1.297548795000012
 30
0.0
 11
0.0631727775000002
 21
1.29835039206182
 31
0.0
  0
LINE
  5
C5C
330
1F
100
AcDbEntity
  8
S&C_vistas
  6
Continuous
 62
   255
100
AcDbLine
 10
0.0631727775000002
 20
1.303197723706944
 30
0.0
 11
0.0631727775000002
 21
1.303872917559602
 31
0.0
  0
LINE
  5
C5D
330
1F
100
AcDbEntity
  8
S&C_vistas
  6
Continuous
 62
   255
100
AcDbLine
 10
0.0631727775000002
 20
1.308716655141438
 30
0.0
 11
0.0631727775000002
 21
1.309386274769281
 31
0.0
  0
LINE
  5
C5E
330
1F
100
AcDbEntity
  8
S&C_vistas
  6
Continuous
 62
   255
100
AcDbLine
 10
0.0631727775000002
 20
1.314233816170372
 30
0.0
 11
0.0631727775000002
 21
1.314901794367415
 31
0.0
  0
LINE
  5
C5F
330
1F
100
AcDbEntity
  8
S&C_vistas
  6
Continuous
 62
   255
100
AcDbLine
 10
0.0631727775000002
 20
1.3197443375592
 30
0.0
 11
0.0631727775000002
 21
1.320410310196621
 31
0.0
  0
LINE
  5
C60
330
1F
100
AcDbEntity
  8
S&C_vistas
  6
Continuous
 62
   255
100
AcDbLine
 10
0.0631727775000002
 20
1.325262139653205
 30
0.0
 11
0.0631727775000002
 21
1.325930683177717
 31
0.0
  0
LINE
  5
C61
330
1F
100
AcDbEntity
  8
S&C_vistas
  6
Continuous
 62
   255
100
AcDbLine
 10
0.0631727775000002
 20
1.330782493142806
 30
0.0
 11
0.0631727775000002
 21
1.331445255881931
 31
0.0
  0
LINE
  5
C62
330
1F
100
AcDbEntity
  8
S&C_vistas
  6
Continuous
 62
   255
100
AcDbLine
 10
0.0631727775000002
 20
1.336291797091008
 30
0.0
 11
0.0631727775000002
 21
1.336962976128689
 31
0.0
  0
LINE
  5
C63
330
1F
100
AcDbEntity
  8
S&C_vistas
  6
Continuous
 62
   255
100
AcDbLine
 10
0.0631727775000002
 20
1.341806401542044
 30
0.0
 11
0.0631727775000002
 21
1.342469712525144
 31
0.0
  0
LINE
  5
C64
330
1F
100
AcDbEntity
  8
S&C_vistas
  6
Continuous
 62
   255
100
AcDbLine
 10
0.0631727775000002
 20
1.347328045190125
 30
0.0
 11
0.0631727775000002
 21
1.347990974205914
 31
0.0
  0
LINE
  5
C65
330
1F
100
AcDbEntity
  8
S&C_vistas
  6
Continuous
 62
   255
100
AcDbLine
 10
0.0631727775000002
 20
1.352843863223939
 30
0.0
 11
0.0631727775000002
 21
1.353501760539757
 31
0.0
  0
LINE
  5
C66
330
1F
100
AcDbEntity
  8
S&C_vistas
  6
Continuous
 62
   255
100
AcDbLine
 10
0.0631727775000002
 20
1.358352862228458
 30
0.0
 11
0.0631727775000002
 21
1.35902541867074
 31
0.0
  0
LINE
  5
C67
330
1F
100
AcDbEntity
  8
S&C_vistas
  6
Continuous
 62
   255
100
AcDbLine
 10
0.0631727775000002
 20
1.36386347510927
 30
0.0
 11
0.0631727775000002
 21
1.364532464152489
 31
0.0
  0
LINE
  5
C68
330
1F
100
AcDbEntity
  8
S&C_vistas
  6
Continuous
 62
   255
100
AcDbLine
 10
0.0631727775000002
 20
1.369386138771574
 30
0.0
 11
0.0631727775000002
 21
1.370051786787258
 31
0.0
  0
LINE
  5
C69
330
1F
100
AcDbEntity
  8
S&C_vistas
  6
Continuous
 62
   255
100
AcDbLine
 10
0.0631727775000002
 20
1.374903065876765
 30
0.0
 11
0.0631727775000002
 21
1.375560563158615
 31
0.0
  0
LINE
  5
C6A
330
1F
100
AcDbEntity
  8
S&C_vistas
  6
Continuous
 62
   255
100
AcDbLine
 10
0.0631727775000002
 20
1.380410969536342
 30
0.0
 11
0.0631727775000002
 21
1.381086766159001
 31
0.0
  0
LINE
  5
C6B
330
1F
100
AcDbEntity
  8
S&C_vistas
  6
Continuous
 62
   255
100
AcDbLine
 10
0.0631727775000002
 20
1.385926126149911
 30
0.0
 11
0.0631727775000002
 21
1.386593209792068
 31
0.0
  0
LINE
  5
C6C
330
1F
100
AcDbEntity
  8
S&C_vistas
  6
Continuous
 62
   255
100
AcDbLine
 10
0.0631727775000002
 20
1.391442133891928
 30
0.0
 11
0.0631727775000002
 21
1.39211250778385
 31
0.0
  0
LINE
  5
C6D
330
1F
100
AcDbEntity
  8
S&C_vistas
  6
Continuous
 62
   255
100
AcDbLine
 10
0.0631727775000002
 20
1.396952368241841
 30
0.0
 11
0.0631727775000002
 21
1.397627991569266
 31
0.0
  0
LINE
  5
C6E
330
1F
100
AcDbEntity
  8
S&C_vistas
  6
Continuous
 62
   255
100
AcDbLine
 10
0.0631727775000002
 20
1.402476426408043
 30
0.0
 11
0.0631727775000002
 21
1.403148003674687
 31
0.0
  0
LINE
  5
C6F
330
1F
100
AcDbEntity
  8
S&C_vistas
  6
Continuous
 62
   255
100
AcDbLine
 10
0.0631727775000002
 20
1.407982685316142
 30
0.0
 11
0.0631727775000002
 21
1.408656450688682
 31
0.0
  0
LINE
  5
C70
330
1F
100
AcDbEntity
  8
S&C_vistas
  6
Continuous
 62
   255
100
AcDbLine
 10
0.0631727775000002
 20
1.413510287981921
 30
0.0
 11
0.0631727775000002
 21
1.413893653367268
 31
0.0
  0
LINE
  5
C71
330
1F
100
AcDbEntity
  8
S&C_vistas
  6
Continuous
 62
   255
100
AcDbLine
 10
0.0631727775000002
 20
1.282006286249953
 30
0.0
 11
0.0631727775000002
 21
1.293564553367332
 31
0.0
  0
LINE
  5
C72
330
1F
100
AcDbEntity
  8
S&C_vistas
  6
Continuous
 62
   255
100
AcDbLine
 10
0.0471288974999879
 20
1.43091354750004
 30
0.0
 11
0.0471288974999879
 21
1.409528256405451
 31
0.0
  0
LINE
  5
C73
330
1F
100
AcDbEntity
  8
S&C_vistas
  6
Continuous
 62
   255
100
AcDbLine
 10
0.0471288974999879
 20
1.404676543566552
 30
0.0
 11
0.0471288974999879
 21
1.404012781519327
 31
0.0
  0
LINE
  5
C74
330
1F
100
AcDbEntity
  8
S&C_vistas
  6
Continuous
 62
   255
100
AcDbLine
 10
0.0471288974999879
 20
1.399166955644546
 30
0.0
 11
0.0471288974999879
 21
1.398490945854974
 31
0.0
  0
LINE
  5
C75
330
1F
100
AcDbEntity
  8
S&C_vistas
  6
Continuous
 62
   255
100
AcDbLine
 10
0.0471288974999879
 20
1.393651376323646
 30
0.0
 11
0.0471288974999879
 21
1.392982674253744
 31
0.0
  0
LINE
  5
C76
330
1F
100
AcDbEntity
  8
S&C_vistas
  6
Continuous
 62
   255
100
AcDbLine
 10
0.0471288974999879
 20
1.388128757164054
 30
0.0
 11
0.0471288974999879
 21
1.387466243601125
 31
0.0
  0
LINE
  5
C77
330
1F
100
AcDbEntity
  8
S&C_vistas
  6
Continuous
 62
   255
100
AcDbLine
 10
0.0471288974999879
 20
1.382617007534805
 30
0.0
 11
0.0471288974999879
 21
1.381959308947785
 31
0.0
  0
LINE
  5
C78
330
1F
100
AcDbEntity
  8
S&C_vistas
  6
Continuous
 62
   255
100
AcDbLine
 10
0.0471288974999879
 20
1.37710856979686
 30
0.0
 11
0.0471288974999879
 21
1.37643082617933
 31
0.0
  0
LINE
  5
C79
330
1F
100
AcDbEntity
  8
S&C_vistas
  6
Continuous
 62
   255
100
AcDbLine
 10
0.0471288974999879
 20
1.371594896964211
 30
0.0
 11
0.0471288974999879
 21
1.370922415754876
 31
0.0
  0
LINE
  5
C7A
330
1F
100
AcDbEntity
  8
S&C_vistas
  6
Continuous
 62
   255
100
AcDbLine
 10
0.0471288974999879
 20
1.366077442928599
 30
0.0
 11
0.0471288974999879
 21
1.365407150571627
 31
0.0
  0
LINE
  5
C7B
330
1F
100
AcDbEntity
  8
S&C_vistas
  6
Continuous
 62
   255
100
AcDbLine
 10
0.0471288974999879
 20
1.360566133312545
 30
0.0
 11
0.0471288974999879
 21
1.359892050980534
 31
0.0
  0
LINE
  5
C7C
330
1F
100
AcDbEntity
  8
S&C_vistas
  6
Continuous
 62
   255
100
AcDbLine
 10
0.0471288974999879
 20
1.355046250213377
 30
0.0
 11
0.0471288974999879
 21
1.354370986246181
 31
0.0
  0
LINE
  5
C7D
330
1F
100
AcDbEntity
  8
S&C_vistas
  6
Continuous
 62
   255
100
AcDbLine
 10
0.0471288974999879
 20
1.349533496132949
 30
0.0
 11
0.0471288974999879
 21
1.348862287105817
 31
0.0
  0
LINE
  5
C7E
330
1F
100
AcDbEntity
  8
S&C_vistas
  6
Continuous
 62
   255
100
AcDbLine
 10
0.0471288974999879
 20
1.344016082088956
 30
0.0
 11
0.0471288974999879
 21
1.3433445404022
 31
0.0
  0
LINE
  5
C7F
330
1F
100
AcDbEntity
  8
S&C_vistas
  6
Continuous
 62
   255
100
AcDbLine
 10
0.0471288974999879
 20
1.338504863989442
 30
0.0
 11
0.0471288974999879
 21
1.337832467062299
 31
0.0
  0
LINE
  5
C80
330
1F
100
AcDbEntity
  8
S&C_vistas
  6
Continuous
 62
   255
100
AcDbLine
 10
0.0471288974999879
 20
1.332980223536424
 30
0.0
 11
0.0471288974999879
 21
1.332311513307559
 31
0.0
  0
LINE
  5
C81
330
1F
100
AcDbEntity
  8
S&C_vistas
  6
Continuous
 62
   255
100
AcDbLine
 10
0.0471288974999879
 20
1.327466828601359
 30
0.0
 11
0.0471288974999879
 21
1.326799816533139
 31
0.0
  0
LINE
  5
C82
330
1F
100
AcDbEntity
  8
S&C_vistas
  6
Continuous
 62
   255
100
AcDbLine
 10
0.0471288974999879
 20
1.321954728796754
 30
0.0
 11
0.0471288974999879
 21
1.321291279673915
 31
0.0
  0
LINE
  5
C83
330
1F
100
AcDbEntity
  8
S&C_vistas
  6
Continuous
 62
   255
100
AcDbLine
 10
0.0471288974999879
 20
1.316445504385342
 30
0.0
 11
0.0471288974999879
 21
1.31577152864611
 31
0.0
  0
LINE
  5
C84
330
1F
100
AcDbEntity
  8
S&C_vistas
  6
Continuous
 62
   255
100
AcDbLine
 10
0.0471288974999879
 20
1.310919729591205
 30
0.0
 11
0.0471288974999879
 21
1.310260327025503
 31
0.0
  0
LINE
  5
C85
330
1F
100
AcDbEntity
  8
S&C_vistas
  6
Continuous
 62
   255
100
AcDbLine
 10
0.0471288974999879
 20
1.305405252849368
 30
0.0
 11
0.0471288974999879
 21
1.304740623283124
 31
0.0
  0
LINE
  5
C86
330
1F
100
AcDbEntity
  8
S&C_vistas
  6
Continuous
 62
   255
100
AcDbLine
 10
0.0471288974999879
 20
1.299897915038059
 30
0.0
 11
0.0471288974999879
 21
1.282006286249953
 31
0.0
  0
LINE
  5
C87
330
1F
100
AcDbEntity
  8
S&C_vistas
  6
Continuous
 62
   255
100
AcDbLine
 10
0.1955347875000086
 20
0.5490015187499466
 30
0.0
 11
0.1955347875000086
 21
1.282006286249953
 31
0.0
  0
LINE
  5
C88
330
1F
100
AcDbEntity
  8
S&C_vistas
  6
Continuous
 62
   255
100
AcDbLine
 10
-0.0852331124999921
 20
1.282006286249953
 30
0.0
 11
-0.0852331124999921
 21
0.5490015187499466
 31
0.0
  0
LINE
  5
C89
330
1F
100
AcDbEntity
  8
S&C_vistas
  6
Continuous
 62
   255
100
AcDbLine
 10
0.0631727775000002
 20
0.2757541874999561
 30
0.0
 11
0.0631727775000002
 21
0.5490015187499466
 31
0.0
  0
LINE
  5
C8A
330
1F
100
AcDbEntity
  8
S&C_vistas
  6
Continuous
 62
   255
100
AcDbLine
 10
0.0471288974999879
 20
0.5490015187499466
 30
0.0
 11
0.0471288974999879
 21
0.2757541874999561
 31
0.0
  0
LINE
  5
C8B
330
1F
100
AcDbEntity
  8
S&C_vistas
  6
Continuous
 62
   255
100
AcDbLine
 10
0.1103016749999881
 20
0.0
 30
0.0
 11
0.1103016749999881
 21
0.2757541874999561
 31
0.0
  0
LINE
  5
C8C
330
1F
100
AcDbEntity
  8
S&C_vistas
  6
Continuous
 62
   255
100
AcDbLine
 10
0.0
 20
0.2757541874999561
 30
0.0
 11
0.0
 21
0.0
 31
0.0
  0
LINE
  5
C8D
330
1F
100
AcDbEntity
  8
S&C_vistas
  6
Continuous
 62
   255
100
AcDbLine
 10
0.0553498566850976
 20
1.414248709346566
 30
0.0
 11
0.0549499854253668
 21
1.409452184828297
 31
0.0
  0
ARC
  5
C8E
330
1F
100
AcDbEntity
  8
S&C_vistas
  6
Continuous
 62
   255
100
AcDbCircle
 10
0.0709590166451335
 20
1.415872803174352
 30
0.0
 40
0.0080402682327316
100
AcDbArc
 50
165.5591015502191
 51
194.250083119137
  0
ARC
  5
C8F
330
1F
100
AcDbEntity
  8
S&C_vistas
  6
Continuous
 62
   255
100
AcDbCircle
 10
0.0709590166515
 20
1.295543703174417
 30
0.0
 40
0.0080402682388969
100
AcDbArc
 50
165.5591015615331
 51
194.2500831075422
  0
LINE
  5
C90
330
1F
100
AcDbEntity
  8
S&C_vistas
  6
Continuous
 62
   255
100
AcDbLine
 10
0.0471288974999879
 20
1.43091354750004
 30
0.0
 11
0.0631727775000002
 21
1.43091354750004
 31
0.0
  0
LINE
  5
C91
330
1F
100
AcDbEntity
  8
S&C_vistas
  6
Continuous
 62
   255
100
AcDbLine
 10
-0.0852331124999921
 20
0.5490015187499466
 30
0.0
 11
0.1955347875000086
 21
0.5490015187499466
 31
0.0
  0
LINE
  5
C92
330
1F
100
AcDbEntity
  8
S&C_vistas
  6
Continuous
 62
   255
100
AcDbLine
 10
-0.0852331124999921
 20
1.282006286249953
 30
0.0
 11
0.1955347875000086
 21
1.282006286249953
 31
0.0
  0
LINE
  5
C93
330
1F
100
AcDbEntity
  8
S&C_vistas
  6
Continuous
 62
   255
100
AcDbLine
 10
0.0
 20
0.2757541874999561
 30
0.0
 11
0.1103016749999881
 21
0.2757541874999561
 31
0.0
  0
LINE
  5
C94
102
{ACAD_REACTORS
102
}
330
1F
100
AcDbEntity
  8
S&C_vistas
  6
Continuous
 62
   255
100
AcDbLine
 10
-0.0551508374999941
 20
0.0
 30
0.0
 11
0.0
 21
0.0
 31
0.0
  0
LWPOLYLINE
  5
C95
330
1F
100
AcDbEntity
  8
S&C_vistas
  6
Continuous
 62
   255
100
AcDbPolyline
 90
       28
 70
   128
 43
0.0
 10
0.0551511786075594
 20
-0.4446976721110999
 10
0.0587954973306637
 20
-0.4441778577962153
 10
0.0617282896189977
 20
-0.4428946292258146
 10
0.0639000966243088
 20
-0.4412797272233987
 10
0.0653946112440451
 20
-0.4396416966961382
 10
0.066351899981953
 20
-0.4382025882164938
 10
0.0669246052189294
 20
-0.4370797539196004
 10
0.0677248331687395
 20
-0.4346939591079703
 10
0.06805325142372
 20
-0.4317823268733704
 10
0.0676297166137374
 20
-0.4284953677572033
 10
0.0663390915273112
 20
-0.4253577700244008
 10
0.0642940819378452
 20
-0.4226823958252438
 10
0.0616450142477163
 20
-0.4206385497108825
 10
0.058585002947126
 20
-0.419349695797517
 10
0.0553184250017011
 20
-0.4188863610974735
 10
0.0520641091870004
 20
-0.4192597303262559
 10
0.0490273139207886
 20
-0.4204308955248265
 10
0.0463945769172369
 20
-0.4223100470570201
 10
0.0443126791716111
 20
-0.4247843577024454
 10
0.0429111148868628
 20
-0.4276978474536676
 10
0.0422782581897536
 20
-0.430870403463426
 10
0.042453113795375
 20
-0.4340986525655338
 10
0.0434259545699547
 20
-0.4371821918748068
 10
0.0451328626681118
 20
-0.4399262801424114
 10
0.0474694484056783
 20
-0.4421607297562772
 10
0.0502871334603867
 20
-0.4437447346954954
 10
0.0534124083660288
 20
-0.4445785090311559
 10
0.0558232412095947
 20
-0.4446018111868383
  0
LINE
  5
C98
330
1F
100
AcDbEntity
  8
S&C_vistas
  6
Continuous
 62
   255
100
AcDbLine
 10
0.0579585165000083
 20
-0.3295108490013475
 30
0.0
 11
0.0579585165000083
 21
-0.3194834240013719
 31
0.0
  0
LINE
  5
C99
330
1F
100
AcDbEntity
  8
S&C_vistas
  6
Continuous
 62
   255
100
AcDbLine
 10
0.0523431584999798
 20
-0.3194834240013719
 30
0.0
 11
0.0523431584999798
 21
-0.3295108490013475
 31
0.0
  0
LINE
  5
C9A
330
1F
100
AcDbEntity
  8
S&C_vistas
  6
Continuous
 62
   255
100
AcDbLine
 10
0.1423238468023271
 20
-0.4853619728409725
 30
0.0
 11
0.1510078515868827
 21
-0.4903756853410172
 31
0.0
  0
LINE
  5
C9B
330
1F
100
AcDbEntity
  8
S&C_vistas
  6
Continuous
 62
   255
100
AcDbLine
 10
0.1538155305868827
 20
-0.4855126426617274
 30
0.0
 11
0.1451315258023271
 21
-0.4804989301616828
 31
0.0
  0
LINE
  5
C9C
330
1F
100
AcDbEntity
  8
S&C_vistas
  6
Continuous
 62
   255
100
AcDbLine
 10
0.0579585165000083
 20
-0.3295174533166786
 30
0.0
 11
0.0579585165000083
 21
-0.3295108490013475
 31
0.0
  0
LINE
  5
C9D
330
1F
100
AcDbEntity
  8
S&C_vistas
  6
Continuous
 62
   255
100
AcDbLine
 10
0.0523431584999798
 20
-0.3295108490013475
 30
0.0
 11
0.0523431584999798
 21
-0.3295174533166786
 31
0.0
  0
LINE
  5
C9E
330
1F
100
AcDbEntity
  8
S&C_vistas
  6
Continuous
 62
   255
100
AcDbLine
 10
0.1423181272975285
 20
-0.4853586706834206
 30
0.0
 11
0.1423238468023271
 21
-0.4853619728409725
 31
0.0
  0
LINE
  5
C9F
330
1F
100
AcDbEntity
  8
S&C_vistas
  6
Continuous
 62
   255
100
AcDbLine
 10
0.1451315258023271
 20
-0.4804989301616828
 30
0.0
 11
0.1451258062975
 21
-0.4804956280040172
 31
0.0
  0
LINE
  5
CA0
330
1F
100
AcDbEntity
  8
S&C_vistas
  6
Continuous
 62
   255
100
AcDbLine
 10
-0.0348241312975119
 20
-0.4804956280040172
 30
0.0
 11
-0.034829850802339
 21
-0.4804989301616828
 31
0.0
  0
LINE
  5
CA1
330
1F
100
AcDbEntity
  8
S&C_vistas
  6
Continuous
 62
   255
100
AcDbLine
 10
-0.032022171802339
 20
-0.4853619728409725
 30
0.0
 11
-0.0320164522975119
 21
-0.4853586706834206
 31
0.0
  0
LINE
  5
CA2
330
1F
100
AcDbEntity
  8
S&C_vistas
  6
Continuous
 62
   255
100
AcDbLine
 10
-0.034829850802339
 20
-0.4804989301616828
 30
0.0
 11
-0.0435138555868946
 21
-0.4855126426617274
 31
0.0
  0
LINE
  5
CA3
330
1F
100
AcDbEntity
  8
S&C_vistas
  6
Continuous
 62
   255
100
AcDbLine
 10
-0.0407061765868946
 20
-0.4903756853410172
 30
0.0
 11
-0.032022171802339
 21
-0.4853619728409725
 31
0.0
  0
LINE
  5
CA4
330
1F
100
AcDbEntity
  8
S&C_vistas
  6
Continuous
 62
   255
100
AcDbLine
 10
0.0526439812500143
 20
-0.3295174533166786
 30
0.0
 11
0.0526439812500143
 21
-0.419139113555569
 31
0.0
  0
LINE
  5
CA5
330
1F
100
AcDbEntity
  8
S&C_vistas
  6
Continuous
 62
   255
100
AcDbLine
 10
0.0576576937500022
 20
-0.4191327445869987
 30
0.0
 11
0.0576576937500022
 21
-0.3295174533166786
 31
0.0
  0
LINE
  5
CA6
330
1F
100
AcDbEntity
  8
S&C_vistas
  6
Continuous
 62
   255
100
AcDbLine
 10
0.1449753949225112
 20
-0.4807561481475872
 30
0.0
 11
0.0673545183975364
 21
-0.4359417141911975
 31
0.0
  0
LINE
  5
CA7
330
1F
100
AcDbEntity
  8
S&C_vistas
  6
Continuous
 62
   255
100
AcDbLine
 10
0.0648615919364772
 20
-0.4402917589507737
 30
0.0
 11
0.1424685386725173
 21
-0.4850981505398507
 31
0.0
  0
LINE
  5
CA8
330
1F
100
AcDbEntity
  8
S&C_vistas
  6
Continuous
 62
   255
100
AcDbLine
 10
-0.0321668636725292
 20
-0.4850981505398507
 30
0.0
 11
0.0454868265000243
 21
-0.4402647716151008
 31
0.0
  0
LINE
  5
CA9
330
1F
100
AcDbEntity
  8
S&C_vistas
  6
Continuous
 62
   255
100
AcDbLine
 10
0.04296023800174
 20
-0.4359341616416926
 30
0.0
 11
-0.0346737199225231
 21
-0.4807561481475872
 31
0.0
  0
LINE
  5
CAA
330
1F
100
AcDbEntity
  8
S&C_vistas
  6
Continuous
 62
   255
100
AcDbLine
 10
-0.075069331467688
 20
-0.4315550034929841
 30
0.0
 11
-0.0101626403361479
 21
-0.3191334006783776
 31
0.0
  0
LINE
  5
CAB
330
1F
100
AcDbEntity
  8
S&C_vistas
  6
Continuous
 62
   255
100
AcDbLine
 10
-0.0121806963731785
 20
-0.3156809693701447
 30
0.0
 11
-0.0790682376562586
 21
-0.4315336190407592
 31
0.0
  0
ARC
  5
CAC
330
1F
100
AcDbEntity
  8
S&C_vistas
  6
Continuous
 62
   255
100
AcDbCircle
 10
-0.0746267538438303
 20
-0.4317905840035322
 30
0.0
 40
0.0005013712497637
100
AcDbArc
 50
151.9739861794278
 51
207.8787549755201
  0
LINE
  5
CAD
330
1F
100
AcDbEntity
  8
S&C_vistas
  6
Continuous
 62
   255
100
AcDbLine
 10
-0.0790690090856572
 20
-0.4320462520945042
 30
0.0
 11
-0.0120329099997889
 21
-0.5481562481146042
 31
0.0
  0
LINE
  5
CAE
330
1F
100
AcDbEntity
  8
S&C_vistas
  6
Continuous
 62
   255
100
AcDbLine
 10
-0.0433686131217996
 20
-0.4869340143813573
 30
0.0
 11
-0.0750699354828726
 21
-0.432025026245536
 31
0.0
  0
LINE
  5
CAF
330
1F
100
AcDbEntity
  8
S&C_vistas
  6
Continuous
 62
   255
100
AcDbLine
 10
-0.0100274249954566
 20
-0.5446826462007933
 30
0.0
 11
-0.0418645007835607
 21
-0.4895392133714253
 31
0.0
  0
ARC
  5
CB0
330
1F
100
AcDbEntity
  8
S&C_vistas
  6
Continuous
 62
   255
100
AcDbCircle
 10
-0.0097379581696941
 20
-0.3193998930568781
 30
0.0
 40
0.0005013712500074
100
AcDbArc
 50
91.99132188211193
 51
147.8913107819956
  0
LINE
  5
CB1
330
1F
100
AcDbEntity
  8
S&C_vistas
  6
Continuous
 62
   255
100
AcDbLine
 10
0.1223345849996633
 20
-0.3154249198884812
 30
0.0
 11
-0.0117363492931872
 21
-0.3154249700764452
 31
0.0
  0
LINE
  5
CB2
330
1F
100
AcDbEntity
  8
S&C_vistas
  6
Continuous
 62
   255
100
AcDbLine
 10
0.0566549512500103
 20
-0.3188985218069532
 30
0.0
 11
0.1203290999950468
 21
-0.3188985218069532
 31
0.0
  0
LINE
  5
CB3
330
1F
100
AcDbEntity
  8
S&C_vistas
  6
Continuous
 62
   255
100
AcDbLine
 10
-0.0097553798814545
 20
-0.3188988245842196
 30
0.0
 11
0.0536467255145965
 21
-0.3188985218069532
 31
0.0
  0
ARC
  5
CB4
330
1F
100
AcDbEntity
  8
S&C_vistas
  6
Continuous
 62
   255
100
AcDbCircle
 10
-0.0117434431738559
 20
-0.3159262911385198
 30
0.0
 40
0.000501371249982
100
AcDbArc
 50
89.18929738131382
 51
150.7053101304864
  0
ARC
  5
CB5
330
1F
100
AcDbEntity
  8
S&C_vistas
  6
Continuous
 62
   255
100
AcDbCircle
 10
-0.0786377238476916
 20
-0.4317905840013722
 30
0.0
 40
0.000501371250023
100
AcDbArc
 50
149.1678795894675
 51
210.6596788671754
  0
LINE
  5
CB6
330
1F
100
AcDbEntity
  8
S&C_vistas
  6
Continuous
 62
   255
100
AcDbLine
 10
0.1203289927576066
 20
-0.3188983360663072
 30
0.0
 11
0.1855073628784396
 21
-0.4317905846700781
 31
0.0
  0
LINE
  5
CB7
330
1F
100
AcDbEntity
  8
S&C_vistas
  6
Continuous
 62
   255
100
AcDbLine
 10
0.1895183324996879
 20
-0.4317905840008037
 30
0.0
 11
0.1223345850000612
 21
-0.3154249198885949
 31
0.0
  0
LINE
  5
CB8
330
1F
100
AcDbEntity
  8
S&C_vistas
  6
Continuous
 62
   255
100
AcDbLine
 10
-0.0120329099993342
 20
-0.5481562481142631
 30
0.0
 11
0.122334584999976
 21
-0.5481562481142631
 31
0.0
  0
LINE
  5
CB9
330
1F
100
AcDbEntity
  8
S&C_vistas
  6
Continuous
 62
   255
100
AcDbLine
 10
0.1203290999997648
 20
-0.5446826462007933
 30
0.0
 11
-0.0100275541812778
 21
-0.5446826462007933
 31
0.0
  0
LINE
  5
CBA
330
1F
100
AcDbEntity
  8
S&C_vistas
  6
Continuous
 62
   255
100
AcDbLine
 10
0.1223345850000044
 20
-0.5481562481142631
 30
0.0
 11
0.1895183325000005
 21
-0.4317905840013722
 31
0.0
  0
LINE
  5
CBB
330
1F
100
AcDbEntity
  8
S&C_vistas
  6
Continuous
 62
   255
100
AcDbLine
 10
0.1521674530747816
 20
-0.4895370010455721
 30
0.0
 11
0.1203290807341943
 21
-0.5446826795698129
 31
0.0
  0
LINE
  5
CBC
330
1F
100
AcDbEntity
  8
S&C_vistas
  6
Continuous
 62
   255
100
AcDbLine
 10
0.1855073625000045
 20
-0.4317905840013722
 30
0.0
 11
0.1536702881249994
 21
-0.4869340143831763
 31
0.0
  0
LINE
  5
CBD
330
1F
100
AcDbEntity
  8
S&C_vistas
  6
Continuous
 62
   255
100
AcDbLine
 10
0.1516596342118817
 20
-0.4892467647189945
 30
0.0
 11
0.1521661743749974
 21
-0.4895392158185344
 31
0.0
  0
LINE
  5
CBE
330
1F
100
AcDbEntity
  8
S&C_vistas
  6
Continuous
 62
   255
100
AcDbLine
 10
0.1536702881249994
 20
-0.4869340143831763
 30
0.0
 11
0.1531637479618837
 21
-0.4866415632836364
 31
0.0
  0
LINE
  5
CBF
330
1F
100
AcDbEntity
  8
S&C_vistas
  6
Continuous
 62
   255
100
AcDbLine
 10
-0.0428620729618956
 20
-0.4866415632836364
 30
0.0
 11
-0.0433702385051333
 21
-0.4869349527968537
 31
0.0
  0
LINE
  5
CC0
330
1F
100
AcDbEntity
  8
S&C_vistas
  6
Continuous
 62
   255
100
AcDbLine
 10
-0.0418644993718544
 20
-0.4895392158167154
 30
0.0
 11
-0.0413579592118936
 21
-0.4892467647189945
 31
0.0
  0
LINE
  5
CC1
330
1F
100
AcDbEntity
  8
S&C_vistas
  6
Continuous
 62
   255
100
AcDbLine
 10
0.0566549512500103
 20
-0.3194834240013719
 30
0.0
 11
0.0566549512500103
 21
-0.318896573276514
 31
0.0
  0
LINE
  5
CC2
330
1F
100
AcDbEntity
  8
S&C_vistas
  6
Continuous
 62
   255
100
AcDbLine
 10
0.0536467237500062
 20
-0.3188985218069532
 30
0.0
 11
0.0536467237500062
 21
-0.3194834240013719
 31
0.0
  0
CIRCLE
  5
CC3
330
1F
100
AcDbEntity
  8
S&C_vistas
  6
Continuous
 62
   255
100
AcDbCircle
 10
0.0551508375000083
 20
-0.4317905840013722
 30
0.0
 40
0.1343674949999922
  0
CIRCLE
  5
CC6
330
1F
100
AcDbEntity
  8
S&C_vistas
  6
Continuous
 62
   255
100
AcDbCircle
 10
0.0551508375000083
 20
-0.4317905840013722
 30
0.0
 40
0.1403839500000004
  0
LINE
  5
CC8
330
1F
100
AcDbEntity
  8
S&C_vistas
  6
Continuous
 62
   255
100
AcDbLine
 10
0.0523431584999798
 20
-0.3194834240013719
 30
0.0
 11
0.0579585165000083
 21
-0.3194834240013719
 31
0.0
  0
LINE
  5
CCA
330
1F
100
AcDbEntity
  8
S&C_vistas
  6
Continuous
 62
   255
100
AcDbLine
 10
0.1538155305868827
 20
-0.4855126426617274
 30
0.0
 11
0.1510078515868827
 21
-0.4903756853410172
 31
0.0
  0
LINE
  5
CCB
330
1F
100
AcDbEntity
  8
S&C_vistas
  6
Continuous
 62
   255
100
AcDbLine
 10
0.0523431584999798
 20
-0.3295174533166786
 30
0.0
 11
0.0526439812500143
 21
-0.3295174533166786
 31
0.0
  0
LINE
  5
CCC
330
1F
100
AcDbEntity
  8
S&C_vistas
  6
Continuous
 62
   255
100
AcDbLine
 10
0.0576576937500022
 20
-0.3295174533166786
 30
0.0
 11
0.0579585165000083
 21
-0.3295174533166786
 31
0.0
  0
LINE
  5
CCD
330
1F
100
AcDbEntity
  8
S&C_vistas
  6
Continuous
 62
   255
100
AcDbLine
 10
0.1451258062975
 20
-0.4804956280040172
 30
0.0
 11
0.1449753949225112
 21
-0.4807561481475872
 31
0.0
  0
LINE
  5
CCE
330
1F
100
AcDbEntity
  8
S&C_vistas
  6
Continuous
 62
   255
100
AcDbLine
 10
0.1424685386725173
 20
-0.4850981505398507
 30
0.0
 11
0.1423181272975285
 21
-0.4853586706834206
 31
0.0
  0
LINE
  5
CCF
330
1F
100
AcDbEntity
  8
S&C_vistas
  6
Continuous
 62
   255
100
AcDbLine
 10
-0.0320164522975119
 20
-0.4853586706834206
 30
0.0
 11
-0.0321668636725292
 21
-0.4850981505398507
 31
0.0
  0
LINE
  5
CD0
330
1F
100
AcDbEntity
  8
S&C_vistas
  6
Continuous
 62
   255
100
AcDbLine
 10
-0.0346737199225231
 20
-0.4807561481475872
 30
0.0
 11
-0.0348241312975119
 21
-0.4804956280040172
 31
0.0
  0
LINE
  5
CD2
330
1F
100
AcDbEntity
  8
S&C_vistas
  6
Continuous
 62
   255
100
AcDbLine
 10
-0.0407061765868946
 20
-0.4903756853410172
 30
0.0
 11
-0.0435138555868946
 21
-0.4855126426617274
 31
0.0
  0
ARC
  5
CDB
330
1F
100
AcDbEntity
  8
S&C_vistas
  6
Continuous
 62
   255
100
AcDbCircle
 10
-0.0411852688698673
 20
-0.4874107506942195
 30
0.0
 40
0.0022342152654774
100
AcDbArc
 50
167.771024264291
 51
252.3012060744163
  0
ARC
  5
CDD
330
1F
100
AcDbEntity
  8
S&C_vistas
  6
Continuous
 62
   255
100
AcDbCircle
 10
0.0551503970940246
 20
-0.3205507244526401
 30
0.0
 40
0.0022340114386489
100
AcDbArc
 50
47.76961296680384
 51
132.3053988680765
  0
ARC
  5
CE1
330
1F
100
AcDbEntity
  8
S&C_vistas
  6
Continuous
 62
   255
100
AcDbCircle
 10
0.1514869064287439
 20
-0.487409809400286
 30
0.0
 40
0.0022346222343936
100
AcDbArc
 50
287.7692954278568
 51
12.29350718155706
  0
ARC
  5
CE2
330
1F
100
AcDbEntity
  8
S&C_vistas
  6
Continuous
 62
   255
100
AcDbCircle
 10
0.0551508375000083
 20
-0.4317905840013722
 30
0.0
 40
0.0551508375000083
100
AcDbArc
 50
0.0
 51
87.39474873495593
  0
ARC
  5
CE3
330
1F
100
AcDbEntity
  8
S&C_vistas
  6
Continuous
 62
   255
100
AcDbCircle
 10
0.0551508375000083
 20
-0.4317905840013722
 30
0.0
 40
0.0551508374999639
100
AcDbArc
 50
92.60525126505264
 51
207.3947487347696
  0
ARC
  5
CE4
330
1F
100
AcDbEntity
  8
S&C_vistas
  6
Continuous
 62
   255
100
AcDbCircle
 10
0.0551508375000083
 20
-0.4317905840013722
 30
0.0
 40
0.0551508374999947
100
AcDbArc
 50
212.6052512648935
 51
327.3947487351069
  0
ARC
  5
CE5
330
1F
100
AcDbEntity
  8
S&C_vistas
  6
Continuous
 62
   255
100
AcDbCircle
 10
0.0551508375000083
 20
-0.4317905840013722
 30
0.0
 40
0.0551508375000073
100
AcDbArc
 50
332.6052512652106
 51
359.9999999999715
  0
POINT
  5
D31
330
1F
100
AcDbEntity
  8
S&C_vistas
  6
Continuous
 62
   255
100
AcDbPoint
 10
0.1103016749999881
 20
0.0
 30
0.0
  0
POINT
  5
D32
330
1F
100
AcDbEntity
  8
S&C_vistas
  6
Continuous
 62
   255
100
AcDbPoint
 10
0.0
 20
0.0
 30
0.0
  0
LINE
  5
D33
330
1F
100
AcDbEntity
  8
S&C_cotas
  6
Continuous
100
AcDbLine
 10
0.1103016749999881
 20
-0.0199999999999996
 30
0.0
 11
0.1103016749999881
 21
-0.0857858393496773
 31
0.0
  0
LINE
  5
D34
330
1F
100
AcDbEntity
  8
S&C_cotas
  6
Continuous
100
AcDbLine
 10
0.0
 20
-0.0199999999999996
 30
0.0
 11
0.0
 21
-0.0857858393496773
 31
0.0
  0
MTEXT
  5
D35
330
1F
100
AcDbEntity
  8
S&C_cotas
  6
Continuous
100
AcDbMText
 10
0.0519436638499542
 20
-0.1120533970444665
 30
0.0
 40
0.02
 41
0.0
 71
     5
 72
     1
  1
%%C11 cm / 4.3"
  7
ARIAL
 73
     1
 44
1.0
  0
LINE
  5
DC6
330
1F
100
AcDbEntity
  8
S&C_cotas
  6
Continuous
100
AcDbLine
 10
0.3480394727985655
 20
1.282372528124775
 30
0.0
 11
0.2041681917651293
 21
1.282372528124775
 31
0.0
  0
LINE
  5
DC7
330
1F
100
AcDbEntity
  8
S&C_cotas
  6
Continuous
100
AcDbLine
 10
0.3480471519602483
 20
0.5481376167595644
 30
0.0
 11
0.2041758709268121
 21
0.5481376167595644
 31
0.0
  0
MTEXT
  5
DC8
330
1F
100
AcDbEntity
  8
S&C_cotas
  6
Continuous
100
AcDbMText
 10
0.3219655050773998
 20
0.9178775930519274
 30
0.0
 40
0.02
 41
0.0
 71
     5
 72
     1
  1
73 cm / 28.7"
  7
ARIAL
 11
6.123031769111886E-17
 21
1.0
 31
0.0
 73
     1
 44
1.0
  0
POINT
  5
E26
330
1F
100
AcDbEntity
  8
S&C_vistas
  6
Continuous
 62
   255
100
AcDbPoint
 10
-0.0750699354829086
 20
-0.4320250262456165
 30
0.0
  0
POINT
  5
E27
330
1F
100
AcDbEntity
  8
S&C_vistas
  6
Continuous
 62
   255
100
AcDbPoint
 10
0.1895183324996879
 20
-0.4317905840008037
 30
0.0
  0
LINE
  5
E28
330
1F
100
AcDbEntity
  8
S&C_cotas
  6
Continuous
100
AcDbLine
 10
-0.0845263470192603
 20
-0.503809586552534
 30
0.0
 11
-0.0845263470192603
 21
-0.690971598855146
 31
0.0
  0
LINE
  5
E29
330
1F
100
AcDbEntity
  8
S&C_cotas
  6
Continuous
100
AcDbLine
 10
0.1965722420359275
 20
-0.506256973400802
 30
0.0
 11
0.1965722420359275
 21
-0.690971598855146
 31
0.0
  0
MTEXT
  5
E2A
330
1F
100
AcDbEntity
  8
S&C_cotas
  6
Continuous
100
AcDbMText
 10
0.0572241985083896
 20
-0.672971598855146
 30
0.0
 40
0.02
 41
0.0
 71
     5
 72
     1
  1
%%c28 cm / 11"
  7
ARIAL
 73
     1
 44
1.0
  0
LINE
  5
F18
330
1F
100
AcDbEntity
  8
S&C_vistas
  6
Continuous
 62
   255
100
AcDbLine
 10
-0.055150837499994
 20
-0.005
 30
0.0
 11
0.1654525124999822
 21
-0.005
 31
0.0
  0
LINE
  5
F8B
330
1F
100
AcDbEntity
  8
S&C_vistas
  6
Continuous
 62
   255
100
AcDbLine
 10
0.0
 20
0.0
 30
0.0
 11
0.1654525124999822
 21
0.0
 31
0.0
  0
LINE
  5
F8C
330
1F
100
AcDbEntity
  8
S&C_vistas
  6
Continuous
 62
   255
100
AcDbLine
 10
0.1654525124999822
 20
0.0
 30
0.0
 11
0.1654525124999822
 21
-0.005
 31
0.0
  0
LINE
  5
F8D
330
1F
100
AcDbEntity
  8
S&C_vistas
  6
Continuous
 62
   255
100
AcDbLine
 10
-0.0551508374999941
 20
0.0
 30
0.0
 11
-0.055150837499994
 21
-0.005
 31
0.0
  0
LINE
  5
F8E
330
1F
100
AcDbEntity
  8
S&C_cotas
  6
Continuous
100
AcDbLine
 10
0.0271288974999879
 20
1.43091354750004
 30
0.0
 11
-0.4133592808200313
 21
1.43091354750004
 31
0.0
  0
LINE
  5
F8F
330
1F
100
AcDbEntity
  8
S&C_cotas
  6
Continuous
100
AcDbLine
 10
-0.055150837499994
 20
-0.005
 30
0.0
 11
-0.4133592808200313
 21
-0.005
 31
0.0
  0
MTEXT
  5
F90
330
1F
100
AcDbEntity
  8
S&C_cotas
  6
Continuous
100
AcDbMText
 10
-0.3953592808200312
 20
0.7149118050000425
 30
0.0
 40
0.02
 41
0.0
 71
     5
 72
     1
  1
143 cm / 56.3"
  7
ARIAL
 11
6.123031769111886E-17
 21
1.0
 31
0.0
 73
     1
 44
1.0
  0
LINE
  5
FBD
330
1F
100
AcDbEntity
  8
S&C_cotas
  6
Continuous
100
AcDbLine
 10
-0.055150837499994
 20
-0.2014935639426664
 30
0.0
 11
-0.0551508374999941
 21
-0.0199999999999996
 31
0.0
  0
LINE
  5
1017
330
1F
100
AcDbEntity
  8
S&C_cotas
  6
Continuous
100
AcDbLine
 10
0.1654525124999822
 20
-0.2014935639426664
 30
0.0
 11
0.1654525124999822
 21
-0.0199999999999996
 31
0.0
  0
MTEXT
  5
1047
330
1F
100
AcDbEntity
  8
S&C_cotas
  6
Continuous
100
AcDbMText
 10
0.054382549344459
 20
-0.1816426389769191
 30
0.0
 40
0.02
 41
0.0
 71
     5
 72
     1
  1
%%c22 cm / 8.7"
  7
ARIAL
 73
     1
 44
1.0
  0
LINE
  5
104C
330
1F
100
AcDbEntity
  8
S&C_vistas
  6
Continuous
 62
   255
100
AcDbLine
 10
-0.055150837499994
 20
-0.005
 30
0.0
 11
-0.0551508374999941
 21
-0.005
 31
0.0
  0
LINE
  5
104D
330
1F
100
AcDbEntity
  8
S&C_vistas
  6
Continuous
 62
   255
100
AcDbLine
 10
0.1654525124999822
 20
-0.005
 30
0.0
 11
0.1654525124999822
 21
-0.005
 31
0.0
  0
ARC
  5
104E
330
1F
100
AcDbEntity
  8
S&C_vistas
  6
Continuous
 62
   255
100
AcDbCircle
 10
0.0551508375000083
 20
-0.4317905840013722
 30
0.0
 40
0.1103016750000023
100
AcDbArc
 50
211.458595565123
 51
328.5414044348697
  0
ARC
  5
1051
330
1F
100
AcDbEntity
  8
S&C_vistas
  6
Continuous
 62
   255
100
AcDbCircle
 10
0.0551508375000083
 20
-0.4317905840013722
 30
0.0
 40
0.1103016750000023
100
AcDbArc
 50
91.45859556515839
 51
208.5414044348602
  0
ARC
  5
1052
330
1F
100
AcDbEntity
  8
S&C_vistas
  6
Continuous
 62
   255
100
AcDbCircle
 10
0.0551508375000083
 20
-0.4317905840013722
 30
0.0
 40
0.1103016750000023
100
AcDbArc
 50
331.4585955651324
 51
88.54140443485637
  0
ENDSEC
  0
SECTION
  2
OBJECTS
  0
DICTIONARY
  5
C
330
0
100
AcDbDictionary
281
     1
  3
ACAD_DETAILVIEWSTYLE
350
104A
  3
ACAD_GROUP
350
D
  3
ACAD_IMAGE_VARS
350
F17
  3
ACAD_LAYOUT
350
1A
  3
ACAD_MLINESTYLE
350
17
  3
ACAD_PLOTSETTINGS
350
19
  3
ACAD_PLOTSTYLENAME
350
E
  3
ACAD_SCALELIST
350
99
  3
ACAD_SECTIONVIEWSTYLE
350
104B
  3
AcDbVariableDictionary
350
59
  3
APPDATA
350
F15
  3
DWGPROPS
350
1053
  0
DICTIONARY
  5
104A
102
{ACAD_REACTORS
330
C
102
}
330
C
100
AcDbDictionary
281
     1
  0
DICTIONARY
  5
D
102
{ACAD_REACTORS
330
C
102
}
330
C
100
AcDbDictionary
281
     1
  0
RASTERVARIABLES
  5
F17
102
{ACAD_REACTORS
330
C
102
}
330
C
100
AcDbRasterVariables
 90
        0
 70
     1
 71
     1
 72
     5
  0
DICTIONARY
  5
1A
102
{ACAD_REACTORS
330
C
102
}
330
C
100
AcDbDictionary
281
     1
  3
Layout1
350
74
  3
Layout2
350
BF
  3
Model
350
22
  0
DICTIONARY
  5
17
102
{ACAD_REACTORS
330
C
102
}
330
C
100
AcDbDictionary
281
     1
  3
Standard
350
18
  0
DICTIONARY
  5
19
102
{ACAD_REACTORS
330
C
102
}
330
C
100
AcDbDictionary
281
     1
  0
ACDBDICTIONARYWDFLT
  5
E
102
{ACAD_REACTORS
330
C
102
}
330
C
100
AcDbDictionary
281
     1
  3
Normal
350
F
100
AcDbDictionaryWithDefault
340
F
  0
DICTIONARY
  5
99
102
{ACAD_REACTORS
330
C
102
}
330
C
100
AcDbDictionary
281
     1
  3
A0
350
1D9
  3
A1
350
1DA
  3
A2
350
1DB
  3
A3
350
1DC
  3
A4
350
1DD
  3
A5
350
1DE
  3
A6
350
1DF
  3
A7
350
1E0
  3
A8
350
1E1
  3
A9
350
1E2
  3
B0
350
1E3
  3
B1
350
1E4
  3
B2
350
1E5
  3
B3
350
1E6
  3
B4
350
1E7
  3
B5
350
1E8
  3
B6
350
1E9
  3
B7
350
1EA
  3
B8
350
1EB
  3
B9
350
1EC
  3
C0
350
1ED
  3
C1
350
1EE
  3
C2
350
1EF
  3
C3
350
1F0
  3
C4
350
1F1
  3
C5
350
1F2
  3
C6
350
1F3
  3
C7
350
1F4
  3
C8
350
1F5
  3
C9
350
1F6
  3
D0
350
1F7
  3
D1
350
1F8
  3
D2
350
1F9
  0
DICTIONARY
  5
104B
102
{ACAD_REACTORS
330
C
102
}
330
C
100
AcDbDictionary
281
     1
  0
DICTIONARY
  5
59
102
{ACAD_REACTORS
330
C
102
}
330
C
100
AcDbDictionary
281
     1
  3
DIMASSOC
350
1D7
  3
HIDETEXT
350
1D8
  0
DICTIONARY
  5
F15
102
{ACAD_REACTORS
330
C
102
}
330
C
100
AcDbDictionary
281
     1
  0
XRECORD
  5
1053
102
{ACAD_REACTORS
330
C
102
}
330
C
100
AcDbXrecord
280
     1
  1
DWGPROPS COOKIE
  2

  3

  4

  6

  7

  8
ClaudiaR
  9

300
=
301
=
302
=
303
=
304
=
305
=
306
=
307
=
308
=
309
=
 40
0.0
 41
2453353.717125822
 42
2456692.615564248
  1

 90
        0
  0
LAYOUT
  5
74
102
{ACAD_REACTORS
330
1A
102
}
330
1A
100
AcDbPlotSettings
  1

  2
\\ADSCCNDC1\hq601xrx1
  4

  6

 40
0.0
 41
0.0
 42
0.0
 43
0.0
 44
0.0
 45
0.0
 46
0.0
 47
0.0
 48
0.0
 49
0.0
140
0.0
141
0.0
142
1.0
143
1.0
 70
   688
 72
     0
 73
     0
 74
     5
  7

 75
    16
147
1.0
148
0.0
149
0.0
100
AcDbLayout
  1
Layout1
 70
     1
 71
     1
 10
0.0
 20
0.0
 11
12.0
 21
9.0
 12
0.0
 22
0.0
 32
0.0
 14
0.0
 24
0.0
 34
0.0
 15
0.0
 25
0.0
 35
0.0
146
0.0
 13
0.0
 23
0.0
 33
0.0
 16
1.0
 26
0.0
 36
0.0
 17
0.0
 27
1.0
 37
0.0
 76
     0
330
73
  0
LAYOUT
  5
BF
102
{ACAD_REACTORS
330
1A
102
}
330
1A
100
AcDbPlotSettings
  1

  2
none_device
  4
Sun_Hi-Res_(1280.00_x_1600.00_Pixels)
  6

 40
0.0
 41
0.0
 42
0.0
 43
0.0
 44
1280.0
 45
1600.0
 46
0.0
 47
0.0
 48
0.0
 49
0.0
140
0.0
141
0.0
142
1.0
143
1.0
 70
   544
 72
     2
 73
     0
 74
     5
  7

 75
    16
147
1.0
148
0.0
149
0.0
100
AcDbLayout
  1
Layout2
 70
     1
 71
     2
 10
0.0
 20
0.0
 11
12.0
 21
9.0
 12
0.0
 22
0.0
 32
0.0
 14
1.000000000000000E+20
 24
1.000000000000000E+20
 34
1.000000000000000E+20
 15
-1.000000000000000E+20
 25
-1.000000000000000E+20
 35
-1.000000000000000E+20
146
0.0
 13
0.0
 23
0.0
 33
0.0
 16
1.0
 26
0.0
 36
0.0
 17
0.0
 27
1.0
 37
0.0
 76
     0
330
BE
  0
LAYOUT
  5
22
102
{ACAD_REACTORS
330
1A
102
}
330
1A
100
AcDbPlotSettings
  1

  2
none_device
  4
Sun_Hi-Res_(1280.00_x_1600.00_Pixels)
  6

 40
6.349999904632568
 41
6.349999904632568
 42
6.350006103515625
 43
6.350006103515625
 44
1280.0
 45
1600.0
 46
0.0
 47
0.0
 48
0.0
 49
0.0
140
0.0
141
0.0
142
1.0
143
0.0029398777842567
 70
 11952
 72
     2
 73
     0
 74
     0
  7

 75
     0
147
0.28088241027059
148
0.1311165230791651
149
0.096403374003771
100
AcDbLayout
  1
Model
 70
     1
 71
     0
 10
0.0
 20
0.0
 11
12.0
 21
9.0
 12
0.0
 22
0.0
 32
0.0
 14
-0.4133592808200313
 24
-0.6917256558621607
 34
0.0
 15
0.7240021016510054
 25
1.43091354750004
 35
0.0
146
0.0
 13
0.0
 23
0.0
 33
0.0
 16
1.0
 26
0.0
 36
0.0
 17
0.0
 27
1.0
 37
0.0
 76
     0
330
1F
331
97
  0
MLINESTYLE
  5
18
102
{ACAD_REACTORS
330
17
102
}
330
17
100
AcDbMlineStyle
  2
Standard
 70
     0
  3

 62
   256
 51
90.0
 52
90.0
 71
     2
 49
0.5
 62
   256
  6
BYLAYER
 49
-0.5
 62
   256
  6
BYLAYER
  0
ACDBPLACEHOLDER
  5
F
102
{ACAD_REACTORS
330
E
102
}
330
E
  0
SCALE
  5
1D9
102
{ACAD_REACTORS
330
99
102
}
330
99
100
AcDbScale
 70
     0
300
1:1
140
1.0
141
1.0
290
     1
  0
SCALE
  5
1DA
102
{ACAD_REACTORS
330
99
102
}
330
99
100
AcDbScale
 70
     0
300
1:2
140
1.0
141
2.0
290
     0
  0
SCALE
  5
1DB
102
{ACAD_REACTORS
330
99
102
}
330
99
100
AcDbScale
 70
     0
300
1:4
140
1.0
141
4.0
290
     0
  0
SCALE
  5
1DC
102
{ACAD_REACTORS
330
99
102
}
330
99
100
AcDbScale
 70
     0
300
1:5
140
1.0
141
5.0
290
     0
  0
SCALE
  5
1DD
102
{ACAD_REACTORS
330
99
102
}
330
99
100
AcDbScale
 70
     0
300
1:8
140
1.0
141
8.0
290
     0
  0
SCALE
  5
1DE
102
{ACAD_REACTORS
330
99
102
}
330
99
100
AcDbScale
 70
     0
300
1:10
140
1.0
141
10.0
290
     0
  0
SCALE
  5
1DF
102
{ACAD_REACTORS
330
99
102
}
330
99
100
AcDbScale
 70
     0
300
1:16
140
1.0
141
16.0
290
     0
  0
SCALE
  5
1E0
102
{ACAD_REACTORS
330
99
102
}
330
99
100
AcDbScale
 70
     0
300
1:20
140
1.0
141
20.0
290
     0
  0
SCALE
  5
1E1
102
{ACAD_REACTORS
330
99
102
}
330
99
100
AcDbScale
 70
     0
300
1:30
140
1.0
141
30.0
290
     0
  0
SCALE
  5
1E2
102
{ACAD_REACTORS
330
99
102
}
330
99
100
AcDbScale
 70
     0
300
1:40
140
1.0
141
40.0
290
     0
  0
SCALE
  5
1E3
102
{ACAD_REACTORS
330
99
102
}
330
99
100
AcDbScale
 70
     0
300
1:50
140
1.0
141
50.0
290
     0
  0
SCALE
  5
1E4
102
{ACAD_REACTORS
330
99
102
}
330
99
100
AcDbScale
 70
     0
300
1:100
140
1.0
141
100.0
290
     0
  0
SCALE
  5
1E5
102
{ACAD_REACTORS
330
99
102
}
330
99
100
AcDbScale
 70
     0
300
2:1
140
2.0
141
1.0
290
     0
  0
SCALE
  5
1E6
102
{ACAD_REACTORS
330
99
102
}
330
99
100
AcDbScale
 70
     0
300
4:1
140
4.0
141
1.0
290
     0
  0
SCALE
  5
1E7
102
{ACAD_REACTORS
330
99
102
}
330
99
100
AcDbScale
 70
     0
300
8:1
140
8.0
141
1.0
290
     0
  0
SCALE
  5
1E8
102
{ACAD_REACTORS
330
99
102
}
330
99
100
AcDbScale
 70
     0
300
10:1
140
10.0
141
1.0
290
     0
  0
SCALE
  5
1E9
102
{ACAD_REACTORS
330
99
102
}
330
99
100
AcDbScale
 70
     0
300
100:1
140
100.0
141
1.0
290
     0
  0
SCALE
  5
1EA
102
{ACAD_REACTORS
330
99
102
}
330
99
100
AcDbScale
 70
     0
300
1/128" = 1'-0"
140
0.0078125
141
12.0
290
     0
  0
SCALE
  5
1EB
102
{ACAD_REACTORS
330
99
102
}
330
99
100
AcDbScale
 70
     0
300
1/64" = 1'-0"
140
0.015625
141
12.0
290
     0
  0
SCALE
  5
1EC
102
{ACAD_REACTORS
330
99
102
}
330
99
100
AcDbScale
 70
     0
300
1/32" = 1'-0"
140
0.03125
141
12.0
290
     0
  0
SCALE
  5
1ED
102
{ACAD_REACTORS
330
99
102
}
330
99
100
AcDbScale
 70
     0
300
1/16" = 1'-0"
140
0.0625
141
12.0
290
     0
  0
SCALE
  5
1EE
102
{ACAD_REACTORS
330
99
102
}
330
99
100
AcDbScale
 70
     0
300
3/32" = 1'-0"
140
0.09375
141
12.0
290
     0
  0
SCALE
  5
1EF
102
{ACAD_REACTORS
330
99
102
}
330
99
100
AcDbScale
 70
     0
300
1/8" = 1'-0"
140
0.125
141
12.0
290
     0
  0
SCALE
  5
1F0
102
{ACAD_REACTORS
330
99
102
}
330
99
100
AcDbScale
 70
     0
300
3/16" = 1'-0"
140
0.1875
141
12.0
290
     0
  0
SCALE
  5
1F1
102
{ACAD_REACTORS
330
99
102
}
330
99
100
AcDbScale
 70
     0
300
1/4" = 1'-0"
140
0.25
141
12.0
290
     0
  0
SCALE
  5
1F2
102
{ACAD_REACTORS
330
99
102
}
330
99
100
AcDbScale
 70
     0
300
3/8" = 1'-0"
140
0.375
141
12.0
290
     0
  0
SCALE
  5
1F3
102
{ACAD_REACTORS
330
99
102
}
330
99
100
AcDbScale
 70
     0
300
1/2" = 1'-0"
140
0.5
141
12.0
290
     0
  0
SCALE
  5
1F4
102
{ACAD_REACTORS
330
99
102
}
330
99
100
AcDbScale
 70
     0
300
3/4" = 1'-0"
140
0.75
141
12.0
290
     0
  0
SCALE
  5
1F5
102
{ACAD_REACTORS
330
99
102
}
330
99
100
AcDbScale
 70
     0
300
1" = 1'-0"
140
1.0
141
12.0
290
     0
  0
SCALE
  5
1F6
102
{ACAD_REACTORS
330
99
102
}
330
99
100
AcDbScale
 70
     0
300
1-1/2" = 1'-0"
140
1.5
141
12.0
290
     0
  0
SCALE
  5
1F7
102
{ACAD_REACTORS
330
99
102
}
330
99
100
AcDbScale
 70
     0
300
3" = 1'-0"
140
3.0
141
12.0
290
     0
  0
SCALE
  5
1F8
102
{ACAD_REACTORS
330
99
102
}
330
99
100
AcDbScale
 70
     0
300
6" = 1'-0"
140
6.0
141
12.0
290
     0
  0
SCALE
  5
1F9
102
{ACAD_REACTORS
330
99
102
}
330
99
100
AcDbScale
 70
     0
300
1'-0" = 1'-0"
140
12.0
141
12.0
290
     0
  0
DICTIONARYVAR
  5
1D7
102
{ACAD_REACTORS
330
59
102
}
330
59
100
DictionaryVariables
280
     0
  1
2
  0
DICTIONARYVAR
  5
1D8
102
{ACAD_REACTORS
330
59
102
}
330
59
100
DictionaryVariables
280
     0
  1
1
  0
ENDSEC
  0
EOF
